Guitaretab - guitar tabs
Song name
# A B C D E F G H I J K L M N O P Q R S T U V W X Y Z

Zac Brown - Chicken Fried tab

Capo 2
Intro:
[ Tab from: http://www.guitaretab.com/z/zac-brown/114493.html ]
   E                       B                     A
e|------------------------|--------------------|--------------------|
B|------------------------|--------------------|--------------------|
G|-1--1-------------------|-----4--2p1h4--1----|----4--2-1-2-1------|
D|-2--2--4-2h4--2---------|-----4------------4-|-4--------------4-2-|
A|-2--2--------------4--2-|-2------------------|--------------------|
E|------------------------|--------------------|--------------------|

   E          B
e|-------------------|
B|-------------------|
G|---------1--2-1----|
D|-2---2-4--------4~-|
A|---2---------------|
E|-------------------|

Took me a week and a half to get this done. I hope it's right.... If not, I hope someone 
fix it. Comment plz!

For corrections, email me to hmj_2003@yahoo.com NO SPAM PLZ!