Song name
# A B C D E F G H I J K L M N O P Q R S T U V W X Y Z

Zach Gill - Back In The Day tab

-----------------------------------------
Zach Gill - Back in the Day Tab
----------------------------------------

Tabbed by Andri

Intro, Chorus and First Verse:

|-------------------------------------------------------------------------|
|--------5----------------6-----------------8----------------6------------|
|------5---5------------7---5-------------9---7------------7---5---- -----|
|----5-------5---5----7-------6---6-----9-------9---9----7-----(7)--(7)---|
|--3-----------3----5-----------5-----7-----------7----5------------(5----|
|-------------------------------------------------------------------------|

Strumming for Second Verse:

|--3---5---7--6--5-|
|--5---6---8--7--6-|
|--5---7---9--8--7-|
|--5---7---9--8--7-|
|--3---5---7--6--5-|
|--x---x---x--x--x-|

Bridge:

Afgahn rugs and tapestries...

|--5---5-|
|--5---6-|
|--5---5-|
|--7---7-|
|--7---5-|
|--5---x-|

I hold you in my heart...

|--5---7-|
|--7---8-|
|--5---9-|
|--6---9-|
|--5---7-|
|--------|
Tap to rate this tab
 
# A B C D E F G H I J K L M N O P Q R S T U V W X Y Z