Song name
# A B C D E F G H I J K L M N O P Q R S T U V W X Y Z

Zack Hemsey - See What Ive Become tab

I'll start by saying that I'm a mediocre guitarist. But from listening this is 
what I've gathered. The tabbing is a bit.. Noobish to say the least, sorry about that.

-------------------------------------------------------------------------------
                             See What I've Become - Zack Hemsey
-------------------------------------------------------------------------------
Tabbed by: Lars de Jonge
E-mail: Lars.jonge@gmail.com

Tuning: Standard

e|---------------------------------------------------------------------------|
B|---------------------------------------------------------------------------|
G|---------------------------------------------------------------------------|
D|-9-7--------9-7-10-9----9-7--------7---------------------------------------|
A|-----10-7-------------------10-7-----10-9-7--------------------------------|
E|---------------------------------------------------------------------------|
   
   Repeat 2x

e|---------------------------------------------------------------------------|
B|---------------------------------------------------------------------------|
G|---------------------------------------------------------------------------|
D|---------------------------------------------------------------------------|
A|--77-77-9-77-77-77-10-77-77-77-9-77-77-99-10-------------------------------|
E|---------------------------------------------------------------------------|

   Repeat 4x

e|---------------------------------------------------------------------------|
B|---------------------------------------------------------------------------|
G|---------------------------------------------------------------------------|
D|-99-99-11-99-99-99-12-99-99-99-11-99-99-1111-12----------------------------|
A|-77-77-9--77-77-77-10-77-77-77-9--77-77-9-9--10----------------------------|
E|---------------------------------------------------------------------------|

   Repeat 4x
   
   At this point they play something that I haven't figured out. In the background
   you can hear that they keep on playing the powerchords as shown above. Keep
   playing these until the 'voices' overshadow the rest.
   After that it's:

e|---------------------------------------------------------------------------|
B|---------------------------------------------------------------------------|
G|-99-99-11-99-99-99-12-99-99-99-11-99-99-1111-12----------------------------|
D|-99-99-11-99-99-99-12-99-99-99-11-99-99-1111-12----------------------------|
A|-77-77-9--77-77-77-10-77-77-77-9--77-77-9-9--10----------------------------|
E|---------------------------------------------------------------------------|

   Keep on playing this for a long long time. Until it goes back to the piano part again.
   After a short while you'll hear this being played over the chords shown above:

e|---------------------------------------------------------------------------|
B|-12-10-------12-10-13-12---12-10-8-7-5-7-----------------------------------|
G|-------12-9----------------------------------------------------------------|
D|---------------------------------------------------------------------------|
A|---------------------------------------------------------------------------|
E|---------------------------------------------------------------------------|

   Vibrato is optional. Whatever you prefer here, really.
   After that it goes back to the first part.


e|---------------------------------------------------------------------------|
B|---------------------------------------------------------------------------|
G|---------------------------------------------------------------------------|
D|-9-7--------9-7-10-9----9-7--------7---------------------------------------|
A|-----10-7-------------------10-7-----10-9-7--------------------------------|
E|---------------------------------------------------------------------------|
   
  End.
  This is my first tab, I hope it is any good.
  Zack Hemsey's official site: http://www.zackhemsey.com/
************************************

| /   slide up
| \   slide down
| h   hammer-on
| p   pull-off
| ~   vibrato
| +   harmonic
| x   Mute note
| b   Bend
| pb  Pre-bend
| br  Bend release
| pbr Pre-bend release
| brb Bend release bend

************************************
Tap to rate this tab
# A B C D E F G H I J K L M N O P Q R S T U V W X Y Z