Zack Hexum - Only A Rehearsal tab

xxxxxxxxxxxxxxxxxxxxxxxxxxxxxxxxxxxxxxxxxxxxxxxxxxxxxxxxxxxxxxxxxxxxxxxxxxxxxxxxxxxxxxxxxxxxxxxxxx
                                   O n l y   A   R e h e a r s a l
                               O p e n   T o   C l o s e   ( 2 0 0 7 )
                                         Z A C K   H E X U M
xxxxxxxxxxxxxxxxxxxxxxxxxxxxxxxxxxxxxxxxxxxxxxxxxxxxxxxxxxxxxxxxxxxxxxxxxxxxxxxxxxxxxxxxxxxxxxxxxx


                   +--------------------------PLEASE NOTE--------------------------+
                   + This file is the work of Jordan Lapping and represents his    +
                   + transcription of the song. You may only use this file for     +
                   + private study, scholarship, or research. The contents may not +
                   + be duplicated for use with other websites without written     +
                   + permission. Thank you for understanding. Enjoy.               +
                   +---------------------------------------------------------------+


Tabbed by Jordan Lapping

Tuning: E (Standard)


 CHORDS USED:
   Aadd9 Badd4  C#m7   E7  Emaj7   A     B     G#
D]---0-----0-----9-----0-----0-----5-----7-----4---|
B]---0-----0-----9-----0-----0-----5-----7-----4---|
G]---6-----8-----9-----9-----4-----6-----8-----5---|
D]---7-----9-----11----9-----6-----7-----9-----6---|
G]---7-----9-----11----7-----6-----7-----9-----6---|
D]---------------9-----------------5-----7-----4---|



 INTRO (notes in brackets are optional):
    A5            A   F#5         E5    A                 A5    B5
e]---(2)-(4)-----------(2)-(4)-----------(2)-(4)-----------(4)-(2)-|
B]-----------------------------------------------------------------|
G]-----------------------------------------------------------------|
D]----------------------------------2-----------------2------------|
A]--0-----------0-4---------------2-----4-----------4-----0-----2--|
E]--------------------2--------------------------------------------|



 VERSE 1:
    A5            A   F#5         E5    A                 A5    B5
e]-------------------------------------------------------------------------|
B]-------------------------------------------------------------------------|
G]--2-2-2-2-2-2-2-2---------------------2-2-2-2-2-2-------2-2-2-4-4-4-4-4--|
D]--2-2-2-2-2-2-2-2---4-4-4-4-4-4---2---2-2-2-2-2-2---2---2-2-2-4-4-4-4-4--|
A]--0-0-0-0-0-0-0-4---4-4-4-4-4-4-2-----4-4-4-4-4-4-4-----0-0-0-2-2-2-2-2--|
E]--------------------2-2-2-2-2-2------------------------------------------|

    A5            A   F#5         E5    A                 A5     B5
e]------------------------------------------------------------------|
B]------------------------------------------------------------------|
G]--2-2-2-2-2-2-2-2---------------------2-2-2-2-2-2-------2-2-2--4--|
D]--2-2-2-2-2-2-2-2---4-4-4-4-4-4---2---2-2-2-2-2-2---2---2-2-2--4--|
A]--0-0-0-0-0-0-0-4---4-4-4-4-4-4-2-----4-4-4-4-4-4-4-----0-0-0--2--|
E]--------------------2-2-2-2-2-2-----------------------------------|

A5           A  F#5           E5    A
  Lonely coffee cup, where's your friend?
              A5            B5
  Where's your, how's your sugar?
A5          A  F#5      E5   A               A5    B5
  I'm the only one that is staring at your shape



 PRE-CHORUS 1:
E5 - Emaj7 - Aadd9 - Badd4 - C#m7 - G# - A - B



 CHORUS 1:
E5                 Emaj7 Aadd9  Badd4
  This is only a rehearsal
C#m7                         G#      A   B  E5
  This black spot is just a test of who you are
                   Emaj7 Aadd9  Badd4
  This is only a rehearsal
C#m7                        G#         A
  You could come back as a roach or a butterfly



 TRANSITION 1:
    Dmaj7  C#m7   F#add4
e]----------------0--|
B]----------------0--|
G]----6------4----3--|
D]------4------2--4--|
A]--5------4------4--|
E]-------------------|



 VERSE 2:
    A5            A   F#5         E5    A                 A5    B5
e]-------------------------------------------------------------------------|
B]-------------------------------------------------------------------------|
G]--2-2-2-2-2-2-2-2---------------------2-2-2-2-2-2-------2-2-2-4-4-4-4-4--|
D]--2-2-2-2-2-2-2-2---4-4-4-4-4-4---2---2-2-2-2-2-2---2---2-2-2-4-4-4-4-4--| (x2)
A]--0-0-0-0-0-0-0-4---4-4-4-4-4-4-2-----4-4-4-4-4-4-4-----0-0-0-2-2-2-2-2--|
E]--------------------2-2-2-2-2-2------------------------------------------|

A5          A  F#5    E5        A
  Stupid sugar drop, hide your face
           A5           B5                A5
  There is no one that wants to hear you sing
               A  F#5    E5        A                A5    B5
  Who's this only one that would stay to hear your song?



 PRE-CHORUS 2:
E5 - Emaj7 - Aadd9 - Badd4 - C#m7 - G# - A - B



 CHORUS 2:
E5                 Emaj7 Aadd9  Badd4
  This is only a rehearsal
C#m7                         G#      A   B  E5
  This black spot is just a test of who you are
                   Emaj7 Aadd9  Badd4
  This is only a rehearsal
C#m7                        G#             A
  You could come back as a cockroach or a butterfly



 INTERLUDE/BRIDGE [A]:
    Dmaj7  C#m7     F#          Dmaj7  E      Bm
e]----------------------------|---------------------------|
B]----------------------------|---------------------------|
G]----6------4------3-----3---|---6------9------7----7----|
D]------4------2------4-----4-|-----4------9------9----9--|
A]--5------4------4-----4-----|-5------7------9-----9-----|
E]----------------------------|---------------------------|

    Dmaj7  C#m7     F#m         Dmaj7  E
e]----------------------------|----------------------------|
B]----------------------------|----------------------------|
G]----6------4------2-----2---|---6------9--------9-9------|
D]------4------2------4-----4-|-----4------9----9-----9----|
A]--5------4------4-----4-----|-5------7------7---------7--|
E]----------------------------|----------------------------|



 INTERLUDE/BRIDGE [B]:
Dmaj7 C#m7  F#
  I   need you
    Dmaj7 E  Bm
  I came unglued
       Dmaj7 C#m7 F#m
  This pale light red
          Dmaj7  E
  Falls on me  instead



 OUTRO:
    Dmaj7  C#m7   F#       Dmaj7  E      Bm   Dmaj7  C#m7   F#m       Dmaj7  E
e]-----------------------|-----------------|-----------------------|-------------------|
B]-----------------------|-----------------|-----------------------|----------------9--|
G]--6h7p6--4h6p4--3------|-6h7p6--9h11p9---|--6h7p6--4h6p4--2------|--6h7p6--9h11p9----|
D]-------------------4---|---------------9-|-------------------4---|-------------------| (x2)
A]---------------------4-|-----------------|---------------------4-|-------------------|
E]-----------------------|-----------------|-----------------------|-------------------|

    Dmaj7  C#m7   F#  Dmaj7  C#m7   F#
e]------------------|------------------|
B]------------------|------------------|
G]--6h7p6--4h6p4--3-|-6h7p6--4h6p4--3--|
D]------------------|------------------|
A]------------------|------------------|
E]------------------|------------------|




xxxxxxxxxxxxxxxxxxxxxxxxxxxxxxxxxxxxxxxxxxxxxxxxxxxxxxxxxxxxxxxxxxxxxxxxxxxxxxxxxxxxxxxxxxxxxxxxxx

xxxxxxxxxxxxxxxxxxxxxxxxxxxxxxxxxxxxxxxxxxxxxxxxxxxxxxxxxxxxxxxxxxxxxxxxxxxxxxxxxxxxxxxxxxxxxxxxxx
Tap to rate this tab
 
# A B C D E F G H I J K L M N O P Q R S T U V W X Y Z