Song name
# A B C D E F G H I J K L M N O P Q R S T U V W X Y Z

Zack Hexum - Realistic Fantasy chords

Highlighted       Show chord diagrams
xxxxxxxxxxxxxxxxxxxxxxxxxxxxxxxxxxxxxxxxxxxxxxxxxxxxxxxxxxxxxxxxxxxxxxxxxxxxxxxxxxxxxxxxxxxxxxxxxxxx
                             R E A L I S T I C   F A N T A S Y   ( 2 0 0 5 )
                           T h e   O n l i n e   G u i t a r   C h o r d s
                                           Z A C K   H E X U M
xxxxxxxxxxxxxxxxxxxxxxxxxxxxxxxxxxxxxxxxxxxxxxxxxxxxxxxxxxxxxxxxxxxxxxxxxxxxxxxxxxxxxxxxxxxxxxxxxxxx


                   +--------------------------PLEASE NOTE--------------------------+
                   + This file is the work of Jordan Lapping and represents his    +
                   + transcription of the album. You may only use this file for    +
                   + private study, scholarship, or research. The contents may not +
                   + be duplicated for use with other websites without written     +
                   + permission. Thank you for understanding. Enjoy.               +
                   +---------------------------------------------------------------+


                    ARTIST:   Zack Hexum
                    EP:       Realistic Fantasy (2005)
                    GERNE:    Pop/Rock
                    SONGS:    
                              1. Realistic Fantasy
                              2. Work Of Art
                              3. Treat Me Bad
                              4. Some Of The Time
                              5. Two Times Two
                              4. We Won't Be


xxxxxxxxxxxxxxxxxxxxxxxxxxxxxxxxxxxxxxxxxxxxxxxxxxxxxxxxxxxxxxxxxxxxxxxxxxxxxxxxxxxxxxxxxxxxxxxxxxxx
1.                                R e a l i s t i c   F a n t a s y
xxxxxxxxxxxxxxxxxxxxxxxxxxxxxxxxxxxxxxxxxxxxxxxxxxxxxxxxxxxxxxxxxxxxxxxxxxxxxxxxxxxxxxxxxxxxxxxxxxxx

Tabbed by Jordan Lapping

Tuning: E (Standard)


 CHORDS USED: [IN ORDER OF FIRST APPEARANCE]
     A   [ch]F#m/A[/ch] [ch]G#m/A[/ch]   A*   D/A   E/A [ch]F#m/A[/ch]* [ch]Dmaj7/A[/ch] E     G     D   F#m11  F#m   C#7
e]---x-----x-----x-----x-----2-----4-----5-----9-----0-----3-----2-----0-----2-----4---|
B]---2-----2-----4-----8-----3-----5-----7-----7-----0-----0-----3-----0-----2-----6---|
G]---2-----2-----4-----6-----2-----4-----6-----7-----1-----0-----2-----2-----2-----4---|
D]---2-----4-----6-----7-----0-----x-----x-----7-----2-----0-----0-----4-----4-----6---|
A]---0-----0-----0-----0-----0-----0-----0-----0-----2-----2-----------4-----4-----4---|
E]---------------------------------------------------0-----3----------(2)----2---------|



 INTRO:
||: A / [ch]F#m/A[/ch] / | [ch]G#m/A[/ch] / A* / :|| (x2)
|| D/A / E/A / | [ch]F#m/A[/ch]* / [ch]Dmaj7/A[/ch] || 



 VERSE 1:
         A       [ch]F#m/A[/ch]   [ch]G#m/A[/ch]          A*
  I have so much       to say to you
           D/A            E/A        [ch]F#m/A[/ch]*     [ch]Dmaj7/A[/ch]
  I wanna share a little piece of my mind
         A       [ch]F#m/A[/ch]    [ch]G#m/A[/ch]          A*
  I have so much       to give to you
      D/A               E/A     [ch]F#m/A[/ch]*     [ch]Dmaj7/A[/ch]
  But you don't seem to have the time



 PRE-CHORUS 1:
E               G        A      [ch]F#m/A[/ch]      [ch]G#m/A[/ch]      A*
   That's just fine with me
E            G               A      [ch]F#m/A[/ch]      [ch]G#m/A[/ch]         A*
   There are other shows to see



 CHORUS 1:
A                    D
  Just once could I not be disappointed, could I
F#m11                   E
  Meet someone that's twice what I hoped they would be?
A                    D
  Just once could I not be disappointed, could you
F#m11             E            (A)
  Stack up to my realistic fantasy?



 TRANSITION 1:
|| A / [ch]F#m/A[/ch] / | [ch]G#m/A[/ch] / A* / ||
|| D/A / E/A / | [ch]F#m/A[/ch]* / [ch]Dmaj7/A[/ch] ||



 VERSE 2:
           A       [ch]F#m/A[/ch]          [ch]G#m/A[/ch]            A*
  You are so sweet       I nearly lost my teeth
           D/A                   D/A*     [ch]Dmaj7/A[/ch]
  When our lips touched only one time
          A      [ch]F#m/A[/ch]      [ch]G#m/A[/ch]          A*
  I was dreaming       of a sunny street
                 D/A   E/A       [ch]F#m/A[/ch]*     [ch]Dmaj7/A[/ch]
  The fence was broken but it is mine



 PRE-CHORUS 2:
E                   G        A      [ch]F#m/A[/ch]      [ch]G#m/A[/ch]      A*
   And that's just fine with me
E            G               A      [ch]F#m/A[/ch]      [ch]G#m/A[/ch]         A*
   There are other shows to see



 CHORUS 2:
A                    D
  Just once could I not be disappointed, could I
F#m11                   E
  Meet someone that's twice what I hoped they would be?
A                    D
  Just once could I not be disappointed, could you
F#m11             E            (A)
  Stack up to my realistic fantasy?



 TRANSITION 2:
|| A / [ch]F#m/A[/ch] / | [ch]G#m/A[/ch] / A* / ||
|| D/A / E/A / | [ch]F#m/A[/ch]* / [ch]Dmaj7/A[/ch] ||



 BRIDGE:
F#m     G                    D
  This coloring book has no lines
        C#7            F#m
  This mystery has no clues
              G                     D
  There is a washing machine in my mind
      C#7               F#m          E
  But it's not cleaning you, me and you



 VERSE 3:
          A    [ch]F#m/A[/ch]    [ch]G#m/A[/ch]            A*
  This is over       but in my head
              D/A           E/A         [ch]F#m/A[/ch]*     [ch]Dmaj7/A[/ch]
  I'd like to tell you off once and for all
          A      [ch]F#m/A[/ch]   [ch]G#m/A[/ch]          A*
  I was thinking       maybe instead
          D/A         E/A     [ch]F#m/A[/ch]*     [ch]Dmaj7/A[/ch]
  I'd be happy to be strung along



 PRE-CHORUS 3:
E             G      A      [ch]F#m/A[/ch]      [ch]G#m/A[/ch]      A*
   That's no way to be
E                G               A      [ch]F#m/A[/ch]      [ch]G#m/A[/ch]         A*
   And there are other shows to see



 CHORUS 3:
A                    D
  Just once could I not be disappointed, could I
F#m11                   E
  Meet someone that's twice what I hoped they would be?
A                       D
  I'd do backflips for your reciprocity
F#m11                        E             A      [ch]F#m/A[/ch]
  And if you stack up to my realistic fantasy
      [ch]G#m/A[/ch]     A*  D      E/A
  My realistic fantasy
     [ch]F#m/A[/ch]*   [ch]Dmaj7/A[/ch]  A      [ch]F#m/A[/ch]
  My realistic fantasy
      [ch]G#m/A[/ch]     A*  D      E/A
  My realistic fantasy
     [ch]F#m/A[/ch]*   [ch]Dmaj7/A[/ch]  A      [ch]F#m/A[/ch]
  My realistic fantasy



 OUTRO:
|| A / [ch]F#m/A[/ch] / | [ch]G#m/A[/ch] / A* / ||
|| D/A / E/A / | [ch]F#m/A[/ch]* - - - ||




xxxxxxxxxxxxxxxxxxxxxxxxxxxxxxxxxxxxxxxxxxxxxxxxxxxxxxxxxxxxxxxxxxxxxxxxxxxxxxxxxxxxxxxxxxxxxxxxxxxx
2.                                      W o r k   O f   A r t
xxxxxxxxxxxxxxxxxxxxxxxxxxxxxxxxxxxxxxxxxxxxxxxxxxxxxxxxxxxxxxxxxxxxxxxxxxxxxxxxxxxxxxxxxxxxxxxxxxxx

Tabbed by Jordan Lapping

Tuning: E (Standard), Capo 3rd Fret


 CHORDS USED (relative to Capo): [IN ORDER OF FIRST APPEARANCE]
     Bm    Bm7/A   C#b5+9   F#11   Gmaj7     D   D7sus2/C Dadd96/B [ch]Dsus2/A[/ch] Gmaj13
e]--(0)-----(0)------0-------0-------x-------2-------0-------0-------0-------0---|
B]---2-------2-------2-------0-------3-------3-------3-------3-------3-------3---|
G]---4-------4-------0-------3-------4-------2-------2-------2-------2-------4---|
D]---4-------4-------3-------2-------4-------0-------x-------x-------0-------4---|
A]---2-------0-------4-------x-------x---------------3-------2-------0-------x---|
E]---------------------------2-------3---------------------------------------3---|



 INTRO:
    Bm                      Bm7/A                   C#b5+9            F#11
e]------------0h2p0-------------------0h2p0-----------------0-----------------0--|
B]------3-----------3-----------3-----------3-------------2---2-------------0----|
G]------4-------------4---------4-------------4---------0-------0---------3------|
D]----4---4-------------4-----4---4-------------0-----3-----------3-----2--------|
A]--2-------2---------------0-------0---------------4----------------------------|
E]--------------------------------------------------------------------2----------|



 VERSE 1:
    Bm                Bm7/A             Gmaj7             C#b5+9    F#11
e]---------------------------------------------------------------------------|
B]------3-----3-----------3-----3-----------3-----3-----------2---------0----|
G]------4-----4-----------4-----4-----------4-----4-----------0---------3----|
D]----4---4-----2-------4---4-----4-------4---4-----4-------3---3-----2---2--| (x2)
A]--2-------2-----2---0-------0-----0---------------------4------------------|
E]--------------------------------------3-------3-----3-------------2--------|

Bm                       Bm7/A                    Gmaj7
  In a sense she is just lines, lines and flowing arcs to a point
              C#b5+9             F#11
  That make a shape that I can't speak of
Bm                       Bm7/A               Gmaj7
  I have never seen such light, if you put a fire in a her eyes
              C#b5+9    F#11
  It wouldn't burn any brighter



 REFRAIN 1:

|| D / D7sus2/C / | Dadd96/B / [ch]Dsus2/A[/ch] / ||

    Gmaj13            C#b5+9    F#11
e]----------0----------------------------|
B]--------3---------------2---------0----|
G]------4-----4-----------0---------3----|
D]----4---------4-------3---3-----2---2--|
A]--------------------4------------------|
E]--3-------------3-------------2--------|

D         D7sus2/C           Dadd96/B
  And her charm is more than that
    [ch]Dsus2/A[/ch]             Gmaj13
  A voice that's angled darker than colour
      C#b5+9       F#11   (Bm)
  And sparkles her other charms



 TRANSITION 1:
    Bm                      Bm7/A                   C#b5+9            F#11
e]------------0h2p0-------------------0h2p0-----------------0-----------------0--|
B]------3-----------3-----------3-----------3-------------2---2-------------0----|
G]------4-------------4---------4-------------4---------0-------0---------3------|
D]----4---4-------------4-----4---4-------------0-----3-----------3-----2--------|
A]--2-------2---------------0-------0---------------4----------------------------|
E]--------------------------------------------------------------------2----------|



 VERSE 2:
    Bm                Bm7/A             Gmaj7             C#b5+9    F#11
e]---------------------------------------------------------------------------|
B]------3-----3-----------3-----3-----------3-----3-----------2---------0----|
G]------4-----4-----------4-----4-----------4-----4-----------0---------3----|
D]----4---4-----2-------4---4-----4-------4---4-----4-------3---3-----2---2--| (x2)
A]--2-------2-----2---0-------0-----0---------------------4------------------|
E]--------------------------------------3-------3-----3-------------2--------|

Bm                  Bm7/A                  Gmaj7
  What a mystery is this a face I'll never kiss anyway
               C#b5+9          F#11
  But if you'd ask me it seems real still
Bm                    Bm7/A           Gmaj7
  Her eyes never look away, follow me into my sleep
          C#b5+9               F#11
  And in dreamland, they seem closer



 REFRAIN 2:

|| D / D7sus2/C / | Dadd96/B / [ch]Dsus2/A[/ch] / ||

    Gmaj13            C#b5+9    F#11
e]----------0----------------------------|
B]--------3---------------2---------0----|
G]------4-----4-----------0---------3----|
D]----4---------4-------3---3-----2---2--|
A]--------------------4------------------|
E]--3-------------3-------------2--------|


D         D7sus2/C           Dadd96/B
  And her charm is more than that
    [ch]Dsus2/A[/ch]             Gmaj13
  A voice that's angled darker than colour
      C#b5+9       F#11   (Bm)
  And sparkles her other charms



 TRANSITION 2:
    Bm                      Bm7/A                   C#b5+9            F#11
e]------------0h2p0-------------------0h2p0-----------------0-----------------0--|
B]------3-----------3-----------3-----------3-------------2---2-------------0----|
G]------4-------------4---------4-------------4---------0-------0---------3------|
D]----4---4-------------4-----4---4-------------0-----3-----------3-----2--------|
A]--2-------2---------------0-------0---------------4----------------------------|
E]--------------------------------------------------------------------2----------|



 CHORUS 1:

|| D / D7sus2/C / | Dadd96/B / [ch]Dsus2/A[/ch] / |
 | Gmaj13 / / / | C#b5+9 / F#11 / |
 | D / D7sus2/C / | Dadd96/B / [ch]Dsus2/A[/ch] |
 | Gmaj13 / / / ||

    C#b5+9            F#11
e]----------------------------0------|
B]------2-----2-------------0---0----|
G]------0-----0-----------3-------3--|
D]----3---3-----3-------2------------|
A]--4-------4-----4------------------|
E]--------------------2--------------|


  D   D7sus2/C      Dadd96/B      [ch]Dsus2/A[/ch]
  She          is a work of art
          Gmaj13          C#b5+9        F#11
  And she moves, yeah she moves right through me
  D   D7sus2/C      Dadd96/B      [ch]Dsus2/A[/ch]
  She          is a work of art
           Gmaj13 C#b5+9      F#11        (Bm)
  But she's only   real in my mind, in my mind



 INTERLUDE:
    Bm                      Bm7/A                   C#b5+9            F#11
e]------------0h2p0-------------------0h2p0-----------------0-----------------0--|
B]------3-----------3-----------3-----------3-------------2---2-------------0----|
G]------4-------------4---------4-------------4---------0-------0---------3------|
D]----4---4-------------4-----4---4-------------0-----3-----------3-----2--------| (x2)
A]--2-------2---------------0-------0---------------4----------------------------|
E]--------------------------------------------------------------------2----------|



 CHORUS 2:

|| - - - - | - - - - |
 | Gmaj13 / / / | C#b5+9 / F#11 / |
 | D / D7sus2/C / | Dadd96/B / [ch]Dsus2/A[/ch] |
 | Gmaj13 / / / | C#b5+9 / / / ||

    F#11
e]----------0--------|
B]--------0---0------|
G]------3-------3----|
D]----2-----------2--|
A]-------------------|
E]--2----------------|

  N/C
  She is a work of art
          Gmaj13          C#b5+9        F#11
  And she moves, yeah she moves right through me
  D   D7sus2/C      Dadd96/B      [ch]Dsus2/A[/ch]
  She          is a work of art
           Gmaj13 C#b5+9      F#11        (Bm)
  But she's only   real in my mind, in my mind



 OUTRO (RALL.):
    Bm                      Bm7/A                   C#b5+9            F#11        Bm
e]------------0h2p0-------------------0h2p0-----------------0-----------------0---2--|
B]------3-----------3-----------3-----------3-------------2---2-------------0-----3--|
G]------4-------------4---------4-------------4---------0-------0---------3-------4--|
D]----4---4-------------4-----4---4-------------0-----3-----------3-----2---------4--|
A]--2-------2---------------0-------0---------------4-----------------------------2--|
E]--------------------------------------------------------------------2--------------|





xxxxxxxxxxxxxxxxxxxxxxxxxxxxxxxxxxxxxxxxxxxxxxxxxxxxxxxxxxxxxxxxxxxxxxxxxxxxxxxxxxxxxxxxxxxxxxxxxxxx
3.                                      T r E A t   M E   B A D
xxxxxxxxxxxxxxxxxxxxxxxxxxxxxxxxxxxxxxxxxxxxxxxxxxxxxxxxxxxxxxxxxxxxxxxxxxxxxxxxxxxxxxxxxxxxxxxxxxxx

Tabbed by Jordan Lapping

Tuning: E (Standard)


 CHORDS USED: [IN ORDER OF FIRST APPEARANCE]
   Dmaj9   Aadd9     E      Bm7    Bm7/A G+9maj7  Gmaj9b5  Eadd9
e]---12------x-------x-------2-------2-------x-------x-------x----|
B]---14------12------12------3-------3-------10------10------10---|
G]---11------14------13------2-------2-------11------11------11---|
D]---0-------11------14------4-------4-------9-------11------9----|
A]-----------0-------11------2-------0-------10------10------11---|
E]-------------------0--------------------------------------------|



 INTRO:
|| Dmaj9 / Aadd9 / | E / / / ||

     Dmaj9                Aadd9                 E
e]----------12------------------------------------------------------------------------------|
B]-------14-----14----------------12--------------------12--------------------12------------|
G]----11-----------11----------14-----14-------------13-----13-------------13-----13--------|
D]--0-----------------0-----11-----------11-------14-----------14-------14-----------14-----| (x2)
A]------------------------0-----------------0---------------------11--------------------11--|
E]----------------------------------------------0---------------------0---------------------|



 VERSE 1:
Dmaj9      Aadd9       E
  Treat me bad if you want to
Dmaj9   Aadd9              E
  No, I can't stay mad at you
Dmaj9       Aadd9       E
  If you're sad when I leave you
         Dmaj9          Aadd9             E
  Do you only blame yourself? Well, you should



 CHORUS 1:
Dmaj9    Add9             E
  If you      don't know    what you have
Dmaj9    Add9       E
  Who am      I to    say?
Dmaj9    Add9             E
  If you      think that    I'm a fool
      Dmaj9             Add9                   E
  You may be right, but that don't mean I'll stay



 VERSE 2:
Dmaj9  Add9            E
  Everyday I play the nice one
Dmaj9  Add9              E
  I believe that's who I am
Dmaj9     Add9        E
  I would never ever hurt you
     Dmaj9            Add9            E
  But if you make me,      I guess I can



 CHORUS 2:
Dmaj9    Add9             E
  If you      don't know    what you have
Dmaj9    Add9       E
  Who am      I to    say?
Dmaj9    Add9             E
  If you      think that    I'm a fool
      Dmaj9             Add9                   E
  You may be right, but that don't mean I'll stay
      Dmaj9             Add9                   E
  You may be right, but that don't mean I'll stay
      Dmaj9             Add9                   E
  You may be right, but that don't mean I'll stay, hey



 BRIDGE:
Bm7                   Bm7/A
  I have something to learn from you
Bm7                           Bm7/A
  And not about where a heart breaks
Bm7                    Bm7/A
  Maybe some day I can tell you
Bm7
  And we'll both learn from your mistakes



 INTERLUDE SOLO:

e]------------------|-------------------|-------------------|--------------------|
B]------------------|-------------------|-------------------|--------------------|
G]-------------6-7~-|------------4-6-7~-|------------4-6-7~-|-7-4-6----4---------|
D]-------4-5-7------|------4-5-7--------|------4-5-7--------|--------7---6/7-4~--|
A]--5-7-------------|-5--7--------------|-5--7--------------|--------------------|
E]------------------|-------------------|-------------------|--------------------|



 BRIDGE 2/CHORUS 3:
G+9maj7  Gmaj9b5             Eadd9
  If you          don't know       what you have
G+9maj7  Gmaj9b5       E
  Who am         I to say?
Dmaj9    Add9        E            E
  If you think that I'm a fool
             Dmaj9                 Add9             E
  You may be right, but that don't mean I'll stay
             Dmaj9                 Add9             E
  You may be right, but that don't mean I'll stay
             Dmaj9                 Add9             E 
  You may be right, but that don't mean I'll stay



 OUTRO:
||: Dmaj9 / Add9 / | E / / / :|| (x4)



xxxxxxxxxxxxxxxxxxxxxxxxxxxxxxxxxxxxxxxxxxxxxxxxxxxxxxxxxxxxxxxxxxxxxxxxxxxxxxxxxxxxxxxxxxxxxxxxxxxx
4.                                  S o m e   O f   T h e   T i m e
xxxxxxxxxxxxxxxxxxxxxxxxxxxxxxxxxxxxxxxxxxxxxxxxxxxxxxxxxxxxxxxxxxxxxxxxxxxxxxxxxxxxxxxxxxxxxxxxxxxx

Tabbed by Jordan Lapping

Tuning: E (Standard)


 INTRO:
    G                        Cmaj7/G                  G                        Cmaj7/G
e]-------------------------|------------------------|------------------------|----|
B]-------------------------|------------------------|------------------------|----|
G]--0-----0-----0-----0----|-0-----0-----0-----0----|-0-----0-----0-----0----|-0--|
D]--0-----4-----0-----4----|-2-----4-----2-----4----|-0-----4-----0-----4----|-2--|
A]-------------------------|------------------------|------------------------|----|
E]-----3-----3-----3-----3-|----3-----3-----3-----3-|----3-----3-----3-----3-|----|



 VERSE 1:
    G                        Cmaj7/G
e]-------------------------|-------------------------|
B]-------------------------|-------------------------|
G]--0-----0-----0-----0----|-0-----0-----0-----0-----|
D]--0-----4-----0-----4----|-2-----4-----2-----4-----| (x3)
A]-------------------------|-------------------------|
E]-----3-----3-----3-----3-|----3-----3-----3-----3--|

    G                        Gm7               D/F#
e]-------------------------|---------------------------|
B]-------------------------|---------------------------|
G]--0-----0-----0-----0----|-3-----0-----3-----2-------|
D]--0-----4-----0-----4----|-3-----0-----3-----0-------|
A]-------------------------|---------------------------|
E]-----3-----3-----3-----3-|----3-----3----3/2----2p0--|

               G                 Cmaj7/G
  Some of the time, it must feel empty
          G          Cmaj7/G
  Being alone for so long
                   G                   Cmaj7/G
  You know that I mean good things can happen
                     G                  Gm7    D/F#
  If you follow yourself, and wait for then



 CHORUS 1:
    E                        Em   Esus4 Esus#4 Esus4
e]-------------------------|-------------------------|
B]-------------------------|-------------------------|
G]--1-----4-----1-----4----|-0-----2-----3-----2-----|
D]--2-----2-----2-----2----|-2-----2-----2-----2-----|
A]-------------------------|-------------------------|
E]-----0-----0-----0-----0-|----0-----0-----0-----0--|

    E                        Amaj9 Asus2 Amaj9
e]-------------------------|--------------------------------|
B]-------------------------|--------------------------------|
G]--1-----4-----1-----4----|-1-----2-----1-----1h2p1--------|
D]--2-----2-----2-----2----|-2-----2-----2------------2-----|
A]-------------------------|----0-----0-----0---------------|
E]-----0-----0-----0-----0-|-----------------------------0--|

    E                        Em   Esus4 Esus#4 Esus4
e]-------------------------|-------------------------|
B]-------------------------|-------------------------|
G]--1-----4-----1-----4----|-0-----2-----3-----2-----|
D]--2-----2-----2-----2----|-2-----2-----2-----2-----|
A]-------------------------|-------------------------|
E]-----0-----0-----0-----0-|----0-----0-----0-----0--|

    E                        Amaj9 Asus2 Amaj9
e]-------------------------|----------------|
B]-------------------------|----------------|
G]--1-----4-----1-----4----|-1-----2-----1--|
D]--2-----2-----2-----2----|-2-----2-----2--|
A]-------------------------|----0-----0-----|
E]-----0-----0-----0-----0-|----------------|

E                       Em    Esus4    Esus#4    Esus4
  When all this is a memory
E                             Amaj9   Asus2   Amaj9
  You're wrapped in someone's arms
E                          Em    Esus4    Esus#4    Esus4
  Don't you ask, "Forgive me?"
E                 Amaj9   Asus2   Amaj9
  Just for moving on



 VERSE 2:
               G                   Cmaj7/G
  Some of the time, you must start over
                        G                    Gm7
  Though you'll carry along the good and the bad 
                   G                     Cmaj7/G
  You know that I mean she's always with you
                     G                 Gm7    D/F#
  If you follow yourself, she'll come along 



 CHORUS 2:
E                       Em    Esus4    Esus#4    Esus4
  When all this is a memory
E                             Amaj9   Asus2   Amaj9
  You're wrapped in someone's arms
E                          Em    Esus4    Esus#4    Esus4
  Don't you ask, "Forgive me?"
E                 Amaj9   Asus2   Amaj9
  Just for moving on



 REFRAIN 1:
    Em/G              D/F#     [ch]G13/F[/ch]
e]-----------------------------------------------------|
B]-----------------------------------------------------|
G]--4-----------------2--------0-----------------------|
D]--2-----------------0--------2-----------------------| (x2)
A]-----------------------------------------------------|
E]--3-----------------2--------1-----------------------|

    Em/G              D/F#     [ch]G13/F[/ch]
e]-----------------------------------------------------|---------------|
B]-----------------------------------------------------|---------------|
G]--4-----------------2--------0-----------------------|-----0---------|
D]--2-----------------0--------2-----------------------|-------2-------|
A]-----------------------------------------------------|---------------|
E]--3-----------------2--------1-----------------------|--1-------1/3--|


  Em/G D/F#   [ch]G13/F[/ch]
  Some of the time
  Em/G D/F#   [ch]G13/F[/ch]
  Some of the time
  Em/G  D/F#     [ch]G13/F[/ch]
  We'll sing goodbye 



 TRANSITION 1:
    G                        Cmaj7/G                  G                        Cmaj7/G
e]-------------------------|------------------------|------------------------|-0--|
B]-------------------------|------------------------|------------------------|-0--|
G]--0-----0-----0-----0----|-0-----0-----0-----0----|-0-----0-----0-----0----|-0--|
D]--0-----4-----0-----4----|-2-----4-----2-----4----|-0-----4-----0-----4----|-2--|
A]-------------------------|------------------------|------------------------|-3--|
E]-----3-----3-----3-----3-|----3-----3-----3-----3-|----3-----3-----3-----3-|-3--|



 VERSE 2:
    G                        Cmaj7/G     Gm7   
e]-------------------------|-------------------------|
B]-------------------------|-------------------------|
G]--0-----2-----4-----2----|-0-----0-----3-----0-----|
D]--0-----0-----0-----0----|-2-----4-----3-----0-----|
A]-------------------------|-------------------------|
E]-----3-----3-----3-----3-|----3-----3-----3-----3--|

    G                        Gm7   
e]-------------------------|-------------------------|
B]-------------------------|-------------------------|
G]--0-----2-----4-----2----|-3-----0-----3-----0-----|
D]--0-----0-----0-----0----|-3-----0-----3-----0-----|
A]-------------------------|-------------------------|
E]-----3-----3-----3-----3-|----3-----3-----3-----3--|

    G                        Cmaj7/G     Gm7   
e]-------------------------|-------------------------|
B]-------------------------|-------------------------|
G]--0-----2-----4-----2----|-0-----0-----3-----0-----|
D]--0-----0-----0-----0----|-2-----4-----3-----0-----|
A]-------------------------|-------------------------|
E]-----3-----3-----3-----3-|----3-----3-----3-----3--|

    G                        Gm7               D/F#
e]-------------------------|---------------------------|
B]-------------------------|---------------------------|
G]--0-----0-----0-----0----|-3-----0-----3-----2-------|
D]--0-----4-----0-----4----|-3-----0-----3-----0-------|
A]-------------------------|---------------------------|
E]-----3-----3-----3-----3-|----3-----3----3/2----2p0--|

               G               Cmaj7/G     Gm7
  Some of the time, we are all with you
                        G                    Gm7
  And though you feel alone, we're all there too
                   G                Cmaj7/G     Gm7
  You know that I mean I'm scared to be there
                     G                  Gm7    D/F#
  But if I follow myself, I'll make it too



 CHORUS 3:
E                       Em    Esus4    Esus#4    Esus4
  When all this is a memory
E                             Amaj9   Asus2   Amaj9
  You're wrapped in someone's arms
E                          Em    Esus4    Esus#4    Esus4
  Don't you ask, "Forgive me?"
E                 Amaj9   Asus2   Amaj9
  Just for moving on



 REFRAIN 2/OUTRO:
  Em/G D/F#   [ch]G13/F[/ch]
  Some of the time
  Em/G D/F#   [ch]G13/F[/ch]
  Some of the time
  Em/G  D/F#     [ch]G13/F[/ch]
  We'll sing goodbye





xxxxxxxxxxxxxxxxxxxxxxxxxxxxxxxxxxxxxxxxxxxxxxxxxxxxxxxxxxxxxxxxxxxxxxxxxxxxxxxxxxxxxxxxxxxxxxxxxxxx
5.                                     T w o   T i m e s   T w o
xxxxxxxxxxxxxxxxxxxxxxxxxxxxxxxxxxxxxxxxxxxxxxxxxxxxxxxxxxxxxxxxxxxxxxxxxxxxxxxxxxxxxxxxxxxxxxxxxxxx

Tabbed by Jordan Lapping

Tuning: E (Standard)


 CHORDS USED: [IN ORDER OF FIRST APPEARANCE]
     C   Cmaj9   Am    G     A7    Dm  [ch]Dm7/C[/ch]   B7  Ebdim7
e]---0-----0-----0-----x-----0-----1-----1-----2---------|
B]---1-----1-----1-----2-----2-----3-----3-----4-----7---|
G]---0-----0-----2-----0-----0-----2-----2-----2-----5---|
D]---2-----0-----2-----0-----2-----0-----x-----4-----7---|
A]---3-----2-----0-----2-----0-----------3-----2-----6---|
E]---------------------3---------------------------------|

    C/E    C*  Cmaj7   G7    Eb    G#    G*    Eb*   D
e]---x-----x-----x-----1-----x-----4-----3-----x-----x---|
B]---x-----x-----x-----0-----4-----4-----3-----8-----7---|
G]---5-----5-----5-----0-----0-----5-----4-----8-----7---|
D]---2-----2-----2-----0-----5-----6-----5-----8-----7---|
A]---x-----3-----2-----2-----6-----6-----5-----6-----5---|
E]---------------------3-----------4-----3---------------|



 INTRO:
|| C / Cmaj9 / | Am / G / ||



 VERSE 1:
C           Cmaj9     Am         A7         Dm
  Two times two times two, I'm stewing over me
      [ch]Dm7/C[/ch]  B7     Ebdim7
  And you to me, it all seems useless
   C/E       C*  Cmaj7       Am    A7     
  History's just       that
          Dm    [ch]Dm7/C[/ch]    G
  And it always is now



 CHORUS 1:
C           Cmaj9               Am            A7
  What good can you do me, from 24 months and 38 states?
Dm                     [ch]Dm7/C[/ch]
  Loving you is like a trip to hell
           G7                  G                      C
  Or the closest I get to the pearly gates, I don't know
  Eb           G#        G*
  Now I wonder    and I wander where I go



 TRANSITION 1:
|| C / Cmaj9 / | Am / G / ||



 VERSE 2:
C           Cmaj9     Am      A7            Dm
  Two times two times two, an offering from me
     [ch]Dm7/C[/ch]     B7 Ebdim7
  To you would be less than selfless
   C/E       C*  Cmaj7       Am    A7     
  History's just       that
          Dm    [ch]Dm7/C[/ch]    G
  And it always is now



 CHORUS 2:
C           Cmaj9               Am            A7
  What good can you do me, from 24 months and 38 states?
Dm                     [ch]Dm7/C[/ch]
  Loving you is like a trip to hell
           G7                  G                      C
  Or the closest I get to the pearly gates, I don't know
   Eb          G#        G*           (Eb*)
  Now I wonder    and I wander where I go



 INTERLUDE 1:
||: Eb* / G# / | D / G* / :|| (x3)



 VERSE 3:
C        Cmaj9      Am
  Me and you are through
            A7                    Dm     [ch]Dm7/C[/ch]   B7
  But I'm still in like with what    you used to do
      Ebdim7
  But now that's pointless 
   C/E       C*  Cmaj7       Am    A7     
  History's just       that
          Dm    [ch]Dm7/C[/ch]    G
  And it always is now



 CHORUS 3:
C           Cmaj9               Am            A7
  What good can you do me, from 24 months and 38 states?
Dm                     [ch]Dm7/C[/ch]
  Loving you is like a trip to hell
           G7                  G                      C
  Or the closest I get to the pearly gates, I don't know
   Eb          G#        G*           (Eb*)
  Now I wonder    and I wander where I go



 OUTRO:
||: Eb* / G# / | D / G* / :|| (x2)
|| Eb* / G# / | D / G* / | C / / / ||





xxxxxxxxxxxxxxxxxxxxxxxxxxxxxxxxxxxxxxxxxxxxxxxxxxxxxxxxxxxxxxxxxxxxxxxxxxxxxxxxxxxxxxxxxxxxxxxxxxxx
6.                                       W e   W o n ' t   B e
xxxxxxxxxxxxxxxxxxxxxxxxxxxxxxxxxxxxxxxxxxxxxxxxxxxxxxxxxxxxxxxxxxxxxxxxxxxxxxxxxxxxxxxxxxxxxxxxxxxx

Tabbed by Jordan Lapping

Tuning: E (Standard), Capo 2nd Fret


 CHORDS USED (relative to Capo): [IN ORDER OF FIRST APPEARANCE]
     G     C     A7    D     D7    G7    Am  Cmaj7   Em
e]---3-----0-----x-----2-----2-----1-----0-----3-----0---|
B]---0-----1-----2-----3-----1-----0-----1-----0-----0---|
G]---0-----0-----2-----2-----2-----0-----2-----0-----0---|
D]---0-----2-----2-----0-----0-----0-----2-----2-----2---|
A]---2-----3-----4-----------------2-----0-----3-----2---|
E]---3-----------------------------3-----------------0---|

    Fmaj7  B7   A/C#   D*  Ebdim7 Em7   Em6   D13   G7/B
e]---0-----2-----x-----x-----x-----0-----0-----5-----3---|
B]---1-----0-----2-----7-----7-----0-----0-----0-----0---|
G]---2-----2-----2-----7-----5-----7-----6-----5-----0---|
D]---3-----1-----2-----7-----7-----5-----5-----4-----3---|
A]---3-----2-----4-----5-----6-----7-----7-----5-----2---|
E]--(1)----------------------------------------------x---|



 INTRO:
    G                 C       G                     A7    D       D7
e]------------------|-0---------------|-------------0---|-2-------2-------|
B]-(0)------0---3---|-1-0----(0)------|(0)------0---2---|-3-------1-------|
G]--0-----2---------|-0---2-0-0-------|-0-----2-----0---|-2-------2-------|
D]--0---------------|-2-------0-------|-0-----------2---|-0-------0-------|
A]--2---------------|-3-------2-------|-2-----------0---|-----------------|
E]--3---------------|---------3-------|-3---------------|-----------------|

    G       G7        C       Am        C       D
e]--3-------1-------|-0---0---0-------|-0-------x----------|
B]--0-------0-------|-1-3---1-1-------|-1---0---3----------|
G]--0-------0-------|-0-------0h2-----|-0-------2h4-2---0--|
D]--0-------0-------|-2-------0h2-----|-2-------0----------|
A]--2-------2-------|-3-------0-------|-3------------------|
E]--3-------3-------|-----------------|--------------------|

|| G / Cmaj7 / | G / Cmaj7 / ||



 VERSE 1:
G       Cmaj7  Em              Cmaj7
  Say goodbye,    let's get it over
G              Cmaj7          Fmaj7     D
  Shielded the gun behind the hearts
G       Cmaj7  Em             Cmaj7
  You and I,      too much to cover
G        Cmaj7            Fmaj7        D
  We ran out of bricks to build and throw



 BRIDGE 1:
Em           G     Em         G
  You're no devil,    I'm no angel
       C         B7          Em     A7
  But heaven is just out of reach
Em           G      C  A/C#          D*       Ebdim7
  Just stop crying,    I'll keep on walking
           Em7               Em6                D13
  It's the next door to the heart that makes me weak



 CHORUS 1:
G      G7/B     C            G
  If I see you in a hundred years
   G             A7   D    D7
  And you still love me
  G       G7  C            Am
  I will try, I will try again
         C       D              Em   A7
  Though I know you and I won't be
        C       D               G
  Yeah, I know you and I won't be



 INTERLUDE:
    G                 C       G                     A7    D       D7
e]------------------|-----------------|-------------0---|-2---2---2---2---|
B]-(0)------0---3---|-1p0----(0)------|(0)------0---2---|-3---3---1---1---|
G]--0-----2---------|-----2-0-0-------|-0-----2-----0---|-2---2---2---2---|
D]--0---------------|---------0-------|-0-----------2---|-0---0---0---0---|
A]--2---------------|-3-------2-------|-2-----------0---|-----------------|
E]--3---------------|---------3-------|-3---------------|-----------------|

    G       G7        C       Am        C       D   Dsus2  
e]--3---3---1-------|-----0---0-------|-0-------x---0------|
B]--0-------0-------|-1h3---1-1-------|-1---0---3---3------|
G]--0-------0-------|---------0h2-----|-0-------2h4-2---0--|
D]--0-------0-------|---------0h2-----|-2-------0----------|
A]--2-------2-------|-3-------0-------|-3------------------|
E]--3-------3-------|-----------------|--------------------|

|| G / / / ||



 BRIDGE 2:
Em           G     Em         G
  You're no devil,    I'm no angel
       C         B7          Em     A7
  But heaven is just out of reach
Em           G      C  A/C#          D*       Ebdim7
  Just stop crying,    I'll keep on walking
           Em7               Em6                D13
  It's the next door to the heart that makes me weak



 CHORUS 2/OUTRO (RALL.):
G      G7/B     C            G
  If I see you in a hundred years
   G             A7   D    D7
  And you still love me
  G       G7  C            Am
  I will try, I will try again
         C       D              Em   A7
  Though I know you and I won't be
        C       D               G
  Yeah, I know you and I won't be




xxxxxxxxxxxxxxxxxxxxxxxxxxxxxxxxxxxxxxxxxxxxxxxxxxxxxxxxxxxxxxxxxxxxxxxxxxxxxxxxxxxxxxxxxxxxxxxxxxxx
                                      A n y   Q u e s t i o n s ?
xxxxxxxxxxxxxxxxxxxxxxxxxxxxxxxxxxxxxxxxxxxxxxxxxxxxxxxxxxxxxxxxxxxxxxxxxxxxxxxxxxxxxxxxxxxxxxxxxxxx


If you have any questions regarding anything in this guide, feel free to message
me over here on Ultimate Guitar. I'll try and respond as quickly as possible, and
I'm more than happy to help out if I can. Any corrections may also be messaged to
me, but I have done my best to double-check (and triple-check) everything in here.
But, there's often that pesky little mistake that seems to stick out like a sore
thumb to everyone else, although I never noticed inputting the data wrongly!

Lastly, the content here is as correct as I can get it. I've tried to tab this out
in the manner which Zack performs it; if you prefer to perform it different then
that is absolutely fine. However, 100% accuracy cannot ever be ensured, but a good
90% of the content in here certainly is.

Thanks for reading guys, I hope this proves useful!


xxxxxxxxxxxxxxxxxxxxxxxxxxxxxxxxxxxxxxxxxxxxxxxxxxxxxxxxxxxxxxxxxxxxxxxxxxxxxxxxxxxxxxxxxxxxxxxxxxxx
                                            T H E   E N D
xxxxxxxxxxxxxxxxxxxxxxxxxxxxxxxxxxxxxxxxxxxxxxxxxxxxxxxxxxxxxxxxxxxxxxxxxxxxxxxxxxxxxxxxxxxxxxxxxxxx
Tap to rate this tab
 
# A B C D E F G H I J K L M N O P Q R S T U V W X Y Z