Song name
# A B C D E F G H I J K L M N O P Q R S T U V W X Y Z

Zakk Wylde - Concrete Jungle tab

E----------------------------------------------------------| Repeat 2X low e
B----------------------------------------------------------| part included
G----------------------------------------------------------|
D------4-----2------------------------4---2----------------|
A--------------------3---2--3P2---------------3---2---3P2--|
E----2----2------2----2--2--------2---2----2---2---2-------|


E----------------------------------------------------------|
B----------------------------------------------------------|
G----------------------------------------------------------|
D----4----2----------------------4-4-4-4-------------------|
A---------------3---2---3p2----4-4-4-4---5v----------------|
E--0---0----0----0---0---------0-2-0-2-------6-5-3---------|
Tap to rate this tab
 
# A B C D E F G H I J K L M N O P Q R S T U V W X Y Z