Song name
# A B C D E F G H I J K L M N O P Q R S T U V W X Y Z

Zalvarinis - Bitela tab

Žalvarinis - Bitela

tabbed by: markus raffery
email: stairsleadingup@gmail.com


	       ~          ~                    ~   ~             ~~
e|---------------------------------------------------------------------------|
B|---------------------------------------------------------7/9-------\7--9-7-|
G|------------6----6-4----------------------5-7------------------------------|
D|--------6\4----------6-4---6-4----------6-------7---\5---------------------|
A|-4--7-5------------------------7-5--5-7------------------------------------|
E|---------------------------------------------------------------------------|


e|---------------------------------------------------------------------------|
B|-------------------------/16---19---16--16-16-17----15-\13-15--15-13-15-13-|
G|-8p7-7---7/9--5--/7-7------------------------------------------------------|
D|---------------------------------------------------------------------------|
A|---------------------------------------------------------------------------|
E|---------------------------------------------------------------------------|
					   x

e|--------14/16-14/16-14/16--14-12-11--x-17--x-17--x-17--x-x-17/19\17--------|
B|---------------------------------------------------------------------------|
G|-14-12---------------------------------------------------------------------|
D|---------------------------------------------------------------------------|
A|---------------------------------------------------------------------------|
E|---------------------------------------------------------------------------|
Tap to rate this tab
 
# A B C D E F G H I J K L M N O P Q R S T U V W X Y Z