Song name
# A B C D E F G H I J K L M N O P Q R S T U V W X Y Z

Zamfir - The Lonely Shepherd tab

#----------------------------------------------------------------------------
#-- File created with Instab - http://www.pconline.com/~smcarey/instab.html -
#----------------------------------------------------------------------------

Author/Artist: Zamfir
Title: The Lonely Shepherd
Album: Kill Bill Soundtrack
Transcribed by: mcshinester
This is my first tab. It's about as accurate as its gonna get. Some 
notes sound a little weird, but its cause its supposed to be a Japenese
Flute. Anyways, Enjoy!

-17p15h17v-17p15h17v|-------11-5-10p810v-8p6h8v-3-5v-------------------------
--------------------|-33-55--------------------------------------------------
--------------------|--------------------------------------------------------
--------------------|--------------------------------------------------------
--------------------|--------------------------------------------------------
--------------------|--------------------------------------------------------
                       This part (x2),then:                                  

-5------10--8-66-----------8--6-55------------13--12-1010--10--10-8----------
---8-66-----------8--6-55-----------10--8-66------------------------8--------
-----------------------------------------------------------------------------
-----------------------------------------------------------------------------
-----------------------------------------------------------------------------
-----------------------------------------------------------------------------
                                                                              

---------------------|--6-5-6--10v-12-10-12v-10-88-66-55-33-1-12-------------
-8v--10p8h10--10p8h10|-------------------------------------------------------
---------------------|-------------------------------------------------------
---------------------|-------------------------------------------------------
---------------------|-------------------------------------------------------
---------------------|-------------------------------------------------------
                      Trumpets kick in here and take over the main riff      

-6-5-6--10v-12-10-12v--151312-1010-8-6-5-1-13--------------------------------
-----------------------------------------------------------------------------
-----------------------------------------------------------------------------
-----------------------------------------------------------------------------
-----------------------------------------------------------------------------
-----------------------------------------------------------------------------
                                                                              

-------11-5-10p8h10v-10-8p6h8--3-5v-|-5------10-8-66---------8-6-55----------
-33-55------------------------------|---8-66---------8-6-55----------10-8-66-
------------------------------------|----------------------------------------
------------------------------------|----------------------------------------
------------------------------------|----------------------------------------
------------------------------------|----------------------------------------
 This part (x2)                                                               

-13--12-1010--10-10-8--------------------------------------------------------
----------------------8--10p8h10--10p8h10------------------------------------
-----------------------------------------------------------------------------
-----------------------------------------------------------------------------
-----------------------------------------------------------------------------
-----------------------------------------------------------------------------
Tap to rate this tab
# A B C D E F G H I J K L M N O P Q R S T U V W X Y Z