Song name
# A B C D E F G H I J K L M N O P Q R S T U V W X Y Z

Zao - Witchhunter tab

Song: Witchhunter
Album: Zao
Album: Self-Titled
Transcribed by: BJ Woodward (sk8ing_woody@hotmail.com)

Tuning: Drop "C" Tuning

Verse(clean)
E|-------------------------------------------------------|
A|-------------------------------------------------------|
G|-------------------------------------------------------|
D|-------------------------------------------------------|
A|------0----0----0----0----0-----8----8----8----8----8--|
D|---7----7----7----7----7-----0----0----0----0----0-----|


This is the part with dist.
E|--------------------------------------------------------------------|
A|--------------------------------------------------------------------|
G|-----------------10-10-10-10-10-10-10----------------5-5-5-5-5-5-5--|
D|---7-7-7-7-7-7---10-10-10-10-10-10-10--3-3-3-3-3-3---5-5-5-5-5-5-5--|
A|---7-7-7-7-7-7---8--8--8--8--8--8--8---3-3-3-3-3-3---3-3-3-3-3-3-3--|
D|---7-7-7-7-7-7-------------------------3-3-3-3-3-3------------------|


At the end play the verse one time, but with distortion.
E|-------------------------------------------------------|
A|-------------------------------------------------------|
G|-------------------------------------------------------|
D|-------------------------------------------------------|
A|------0----0----0----0----0-----8----8----8----8----8--|
D|---7----7----7----7----7-----0----0----0----0----0-----|
Tap to rate this tab
 
# A B C D E F G H I J K L M N O P Q R S T U V W X Y Z