Song name
# A B C D E F G H I J K L M N O P Q R S T U V W X Y Z

Zao - I Lay Sleepless In My Grave tab

Zao
I Lay Sleepless in My Grave
Funeral of God

(C G C F A D)

Left guitar
(plays whole song, 11x)
d|-----------------|-----------------|-----------------|-----------------|
a|-----------------|-----------------|-----------------|-----------------|
f|-----3-----3-----|-----3-----3-----|-----0-----0-----|-----2-----2-----|
c|---0---0-----0---|---0---0-----0---|---0---0-----0---|---0---0-----0---|
g|-----------------|-----------------|-----------------|-----------------|
c|-5-------5-----5-|-5-------5-----5-|-3-------3-----3-|-0-------0-----0-|

Right guitar
(chords, 3rd and 4th time)
d|---------------------------------------|
a|-------------------|-------------------|
f|---3---3---0---2---|---3---3---0---10--|
c|---0---0---0---0---|---0---0---0---0---|
g|-------------------|-------------------|
c|-------------------|-------------------|

(picking, 7x)
d|-------------|-------------|-------------|-------------|
a|--3---3---3--|--1---1---1--|-------------|-------------|
f|-------------|-------------|--3---3---3--|--2---2---2--|
c|---0-0-0-0-0-|---0-0-0-0-0-|---0-0-0-0-0-|---0-0-0-0-0-|
g|-------------|-------------|-------------|-------------|
c|-------------|-------------|-------------|-------------|
Tap to rate this tab
# A B C D E F G H I J K L M N O P Q R S T U V W X Y Z