Song name
# A B C D E F G H I J K L M N O P Q R S T U V W X Y Z

Zappa Frank - Uncle Remus tab

This is the first solo:
--------5-8-------------------------------------------------------------|
--8b--------pbr8-6-8gb----6---6-8b--6vvv----------------8b--br8p6-------|
----------------------------7------------7---7p5---5-7-----------7vvv---|
-------------------------------------------------7----------------------|
------------------------------------------------------------------------|
------------------------------------------------------------------------|

------------------8-10-------------------10-13p10----10---(10)----------|
---------3-6-----------8b--8v--888----10----------13----13p10-13-p10-13-|
-7-5-5-5-------5--------------------------------------------------------|
------------------------------------------------------------------------|
------------------------------------------------------------------------|
------------------------------------------------------------------------|

-10--------------------------------------------------------------------|
-----------------------------------------------------------------------|
-----12b-br12p10-12-p10-12p10----10---12b-12b-12b-12b13br12p10-12p10---|
------------------------------12------------------------------------12-|
-----------------------------------------------------------------------|
-----------------------------------------------------------------------|

-----------------------------------------------------------------------|
-----------------------------------------------------------------------|
-10--------------------------------------------------------------------|
----12p10--------------------------------------------------------------|
-----------------------------------------------------------------------|
-----------------------------------------------------------------------|

I didn't say to what extent to bend most of the notes cause for me its all by feel and 
bend to where it sounds right,not to another specific fret's pitch. I also added all of 
little extra notes that you have to listen to the song carefully for (eg. 888.)

b=bend
br=bend release
pbr=pre-bend release
gb=gradually bend
v=vibrato
p=pull-off

This should be a very accurate.I worked pretty hard typing it and listening to certain 
many times.I'm too lazy to type more but I'll have the second solo later.The hard part
internet tabs is that you cant show rythyms and quarter notes and whatever. All the notes
are there.Just try to figure out how to play them with the song.Hope this shows up ok
Tap to rate this tab
 
# A B C D E F G H I J K L M N O P Q R S T U V W X Y Z