Song name
# A B C D E F G H I J K L M N O P Q R S T U V W X Y Z

Zatopeks - Radio Maryja tab

-------------------------------------------------------------------------------
                             Radio Maryja - Zatopeks
-------------------------------------------------------------------------------
Tabbed by: squintyjoefan
E-mail: squintyjoefan@hotmail.co.uk

From the album 'Damn Fool Music'

Song can be found here: http://www.youtube.com/watch?v=tAOw9JBbojQ

Tuning: EADGBE (standard)

Song order

Intro
Verse 
Chorus (x2)
Chorus Ending
Verse  (x2)
Chorus (x2)
Chorus Ending (x2)
Outro


Intro
e|---------------------------------------------------------------------------|
B|---------------------------------------------------------------------------|
G|------7---9---9--------7---9-----------------------------------------------|
D|--7---7---9---7----7---7---9-----------------------------------------------|
A|--7---5---7---0----7---5---7-----------------------------------------------|
E|--5----------------5-------------------------------------------------------|
   A5  D5  E5  A5    A5  D5  E5  (play each chord once)

Verse
e|---------------------------------------------------------------------------|
B|---------------------------------------------------------------------------|
G|------7---9---2--------7---9-----------------------------------------------|
D|--7---7---9---2----7---7---9-----------------------------------------------|
A|--7---5---7---0----7---5---7-----------------------------------------------|
E|--5----------------5-------------------------------------------------------|
   A5   D5  E5  A5   A5  D5  E5  (play each chord 8 times)

Chorus
e|---------------------------------------------------------------------------|
B|---------------------------------------------------------------------------|
G|------9----7---9-----------------------------------------------------------|
D|--7---9----7---9-----------------------------------------------------------|
A|--7---7----5---7-----------------------------------------------------------|
E|--5------------------------------------------------------------------------|
    A5  E5   D5  E5  (play this bar twice with each chord played 8 times)

Chorus ending  (Get me out of here)
e|---------------------------------------------------------------------------|
B|---------------------------------------------------------------------------|
G|---7~----9~----------------------------------------------------------------|
D|---7~----9~----------------------------------------------------------------|
A|---5~----7~----------------------------------------------------------------|
E|---------------------------------------------------------------------------|
     D5   E5 

Outro

e|---------------------------------------------------------------------------|
B|---------------------------------------------------------------------------|
G|------7---9---2------------------------------------------------------------|
D|--7---7---9---2------------------------------------------------------------|
A|--7---5---7---0------------------------------------------------------------|
E|--5------------------------------------------------------------------------|
    A5  D5  E5  A5  (play each chord once)



************************************

| /   slide up
| \   slide down
| h   hammer-on
| p   pull-off
| ~   vibrato
| +   harmonic
| x   Mute note
| b   Bend
| pb  Pre-bend
| br  Bend release
| pbr Pre-bend release
| brb Bend release bend

************************************
Tap to rate this tab
 
# A B C D E F G H I J K L M N O P Q R S T U V W X Y Z