Song name
# A B C D E F G H I J K L M N O P Q R S T U V W X Y Z

Zatopeks - I Dont Want The Airwaves tab

-------------------------------------------------------------------------------
                I Don't Want the Airwaves - Zatopeks
-------------------------------------------------------------------------------
Tabbed by: squintyjoefan
E-mail: squintyjoefan@hotmail.co.uk

Track 8 from the album "Damn Fool Music"


Tuning: EADGBE (standard)

Song order

Intro 
Verse
Verse End
Verse2
Pre Chorus
Chorus
Intro
Verse
Pre Chorus
Chorus
Outro


Intro (played twice)

e|-------------9-8-----------------------------------------------------------|
B|--9-8-9-8-9------9~---------11-13-11-(9)-----------------------------------|
G|---------------------------------------------------------------------------|
D|---------------------------------------------------------------------------|
A|---------------------------------------------------------------------------|
E|---------------------------------------------------------------------------|
  Play this 3 times          End of this on the 4th time


Intro Chords (guitar 2)

e|---------------------------------------------------------------------------|
B|---------------------------------------------------------------------------|
G|---------10------6-------8-------------------------------------------------|
D|--6------10------6-------8-------------------------------------------------|
A|--6------8-------4-------6-------------------------------------------------|
E|--4------------------------------------------------------------------------|
   G#5    F5      C#5     D#5

Verse (bass only first time, then guitar palm muted the second time)
For bass, follow the root notes of the chords and play the bass riff at the end

e|---------------------------------------------------------------------------|
B|---------------------------------------------------------------------------|
G|---------10------6-------8--------------------------------10--15--10-------|
D|--6------10------6-------8-------------------------------------------------|
A|--6------8-------4-------6-------------------------------------------------|
E|--4------------------------------------------------------------------------|
   G#5    F5      C#5     D#5                            Bass riff played in 
                                                      the middle of the verse

Verse End

e|---------------------------------------------------------------------------|
B|----------------------------------------------------------9-8----9-8-------|
G|------5-------5-----------6----8------------------------------9------9-----|
D|--6---5---6---5-----------6----8-------------------------------------------|
A|--6---3---6---3-----------4----6-------------------------------------------|
E|--4-------4----------------------------------------------------------------|
   G#5 C5  G#5 C5          C#5   D#5                        Riff played by 
 Play each chord once      Play these 8 times each          guitar 2



Pre Chorus (Background Ahh's)

e|---------------------------------------------------------------------------|
B|---------------------------------------------------------------------------|
G|-------8----5----6----8----------------------------------------------------|
D|--6----8----5----6----8----------------------------------------------------|
A|--6----6----3----4----6----------------------------------------------------|
E|--4------------------------------------------------------------------------|
   G#5  D#5  C5   C#5  D#5  Play each chord 8 times


Chorus ("I don't want the airwaves")

e|---------------------------------------------------------------------------|
B|---------------------------------------------------------------------------|
G|-------5----6----8---------------------------------------------------------|
D|--6----5----6----8---------------------------------------------------------|
A|--6----3----4----6---------------------------------------------------------|
E|--4------------------------------------------------------------------------|
   G#5  C5   C#5  D#5

Outro

e|---------------------------------------------------------------------------|
B|---------------------------------------------------------------------------|
G|---10----8---6----8---6----------------------------------------------------|
D|---10----8---6----8---6---------------6--6--6------------------------------|
A|---8-----6---4----6---4---------------6--6--6------------------------------|
E|--------------------------------------4--4--4------------------------------|
   Play each chord once                


************************************

| /   slide up
| \   slide down
| h   hammer-on
| p   pull-off
| ~   vibrato
| +   harmonic
| x   Mute note
| b   Bend
| pb  Pre-bend
| br  Bend release
| pbr Pre-bend release
| brb Bend release bend

************************************
Tap to rate this tab
# A B C D E F G H I J K L M N O P Q R S T U V W X Y Z