Song name
# A B C D E F G H I J K L M N O P Q R S T U V W X Y Z

Zatopeks - Acetate tab

-------------------------------------------------------------------------------
                             Zatopeks - Acetate
-------------------------------------------------------------------------------
Tabbed by: squintyjoefan
E-mail: squintyjoefan@hotmail.co.uk

Acetate from the Album 'About Bloody Time'
Song can be found here: http://www.youtube.com/watch?v=ZRJ-ybqUrak

Tuning: Standard (EADGBe)

Song Order

Intro
Verse 
Chorus
Verse 2 
Chorus
Verse/solo
Chorus
Intro

Intro (play twice)

e|---------------------------------------------------------------------------|
B|---------------------------------------------------------------------------|
G|---------------------------------------------------------------------------|
D|---2----------6------------7-----------------------------------------------|
A|---2----------6------------7-----------------------------------------------|
E|---0----------4------------5-----------------------------------------------|
    Emaj       G#maj        Amaj


Verse

e|---------------------------------------------------------------------------|
B|---------------------------------------------------------------------------|
G|---------------------------------------------------------------------------|
D|---2--------6-------7--------9---------------------------------------------|
A|---2--------6-------7--------9---------------------------------------------|
E|---0--------4-------5--------7---------------------------------------------|
     Emaj    G#maj   Amaj     Bmaj       

Verse End

e|---------------------------------------------------------------------------|
B|---------------------------------------------------------------------------|
G|---------------------------------------------------------------------------|
D|----7------9------9--9---------7--7--7-----9-------------------------------|
A|----7------9------9--9---------7--7--7-----9-------------------------------|
E|----5------7-----77--7----7--5-5--5--5-----7-------------------------------|

Chorus

e|---------------------------------------------------------------------------|
B|---------------------------------------------------------------------------|
G|---------------------------------------------------------------------------|
D|-2---6---7---9------------7-9-7-9--7--9------------------------------------|
A|-2---6---7---9------------7-9-7-9--7--9------------------------------------|
E|-0---4---5---7------------5-7-5-7--5--7------------------------------------|
 Play this twice            End on this 

Verse 2 
Guitar 2 parts

e|--------4-----5------7-----------------------------------------------------|
B|---9----4-----5------7-----------------------------------------------------|
G|---9-----------------------------------------------------------------------|
D|---------------------------------------------------------------------------|
A|---------------------------------------------------------------------------|
E|---------------------------------------------------------------------------|
Play along with the verse



************************************

| /   slide up
| \   slide down
| h   hammer-on
| p   pull-off
| ~   vibrato
| +   harmonic
| x   Mute note
| b   Bend
| pb  Pre-bend
| br  Bend release
| pbr Pre-bend release
| brb Bend release bend

************************************
Tap to rate this tab
# A B C D E F G H I J K L M N O P Q R S T U V W X Y Z