Song name
# A B C D E F G H I J K L M N O P Q R S T U V W X Y Z

Zatopeks - Alert tab

-------------------------------------------------------------------------------
                             Alert - Zatopeks
-------------------------------------------------------------------------------
Tabbed by: squintyjoefan
E-mail: squintyjoefan@hotmail.co.uk

Track 2 taken from the Album 'About Bloody Time'

Song can be found at http://www.youtube.com/watch?v=Z5_CHUkwwws

Tuning: Standard (EADGBe)

Song Order

Intro/Chorus (x2)
First Riff
Verse (x4)
Pre-Chorus 1
Chorus (x4)
Second Riff (x4)
Verse (x4)
Pre-Chorus (x2)
Chorus (x4)
Drum solo part
Chorus (x8)
Outro

Intro/Chorus
e|---------------------------------------------------------------------------|
B|---------------------------------------------------------------------------|
G|---------------------44444444-66666666-------------------------------------|
D|--44444444-44444444--44444444-66666666-------------------------------------|
A|--44444444-44444444--22222222-44444444-------------------------------------|
E|--22222222-22222222--------------------------------------------------------|

First Riff
e|---------------------------------------------------------------------------|
B|---------------------------------------------------------------------------|
G|--------6-4-6------------------6-4-6---------------------------------------|
D|---4-4---------4-4--7/4---4-4---------4-4--7/4-----------------------------|
A|---------------------------------------------------------------------------|
E|---------------------------------------------------------------------------|

Verse
e|---------------------------------------------------------------------------|
B|---------------------------------------------------------------------------|
G|-----------4--------6------------------------------------------------------|
D|-4---------4--------6------------------------------------------------------|
A|-4---------2--------4------------------------------------------------------|
E|-2-------------------------------------------------------------------------|
Listen to the rhythm and palm mutes

Pre-Chorus 1
e|---------------------------------------------------------------------------|
B|---------------------------------------------------------------------------|
G|--4~----6~----11~----8~----4--------4-4------------------------------------|
D|--4~----6~----11~----8~----4--------4-4------------------------------------|
A|--2~----4~-----9~----6~----2--------2-2------------------------------------|
E|---------------------------------------------------------------------------|
                            PM lots

Second Riff
e|---------------------------------------------------------------------------|
B|---------------------------------------------------------------------------|
G|---------------------------------------------------------------------------|
D|--4-4--2/4-----------------------------------------------------------------|
A|---------------------------------------------------------------------------|
E|---------------------------------------------------------------------------|

Pre-Chorus 2
e|---------------------------------------------------------------------------|
B|---------------------------------------------------------------------------|
G|--4~----6~-----------------------------------------------------------------|
D|--4~----6~-----------------------------------------------------------------|
A|--2~----4~-----------------------------------------------------------------|
E|---------------------------------------------------------------------------|

Drum Solo 
e|---------------------------------------------------------------------------|
B|---------------------------------------------------------------------------|
G|-4-----4--------4----------------------------------------------------------|
D|-4-----4--------4----------------------------------------------------------|
A|-2-----2--------2----------------------------------------------------------|
E|---------------------------------------------------------------------------|
                  Use lots of PM here

2nd Guitar for final chorus
e|---------------------------------------------------------------------------|
B|---777777777----999999999--------------------------------------------------|
G|---xxxxxxxxx----xxxxxxxxx--------------------------------------------------|
D|---444444444----666666666--------------------------------------------------|
A|---------------------------------------------------------------------------|
E|---------------------------------------------------------------------------|
Listen to the song for the rhythm

Outro
e|---------------------------------------------------------------------------|
B|---------------------------------------------------------------------------|
G|-444-----444--------4------------------------------------------------------|
D|-444-----444--------4------------------------------------------------------|
A|-222-----222--------2------------------------------------------------------|
E|---------------------------------------------------------------------------|

************************************

| /   slide up
| \   slide down
| h   hammer-on
| p   pull-off
| ~   vibrato
| +   harmonic
| x   Mute note
| b   Bend
| pb  Pre-bend
| br  Bend release
| pbr Pre-bend release
| brb Bend release bend

************************************
Tap to rate this tab
# A B C D E F G H I J K L M N O P Q R S T U V W X Y Z