Guitaretab - guitar tabs
Song name
# A B C D E F G H I J K L M N O P Q R S T U V W X Y Z

Zaunpfahl - Und Mir Gehts Gut tab

Zaunpfahl - Und mir geht's gut

() - let ring

Main Riff:
[ Tab from: http://www.guitaretab.com/z/zaunpfahl/63618.html ]
     A A  G G  A A  G G  A A     G G  F F  F F  G G  G G  A A  G G  A A                  
e:|---------------------------|------------------------------------------|
B:|---------------------------|------------------------------------------|
G:|---------------------------|------------------------------------------|
D:|--7-7--5-5--7-7--5-5--7-7--|--5-5--3-3--3-3--5-5--5-5--7-7--5-5--7-7--|
A:|--7-7--5-5--7-7--5-5--7-7--|--5-5--3-3--3-3--5-5--5-5--7-7--5-5--7-7--|
E:|--5-5--3-3--5-5--3-3--5-5--|--3-3--1-1--1-1--3-3--3-3--5-5--3-3--5-5--|

Chorus:

     G G  F         G
e:|----------------------------|
B:|----------------------------|
G:|----------------------------|
D:|--5-5--3-----(3)-5-----(5)--|
A:|--5-5--3-----(3)-5-----(5)--|
E:|--3-3--1-----(1)-3-----(3)--|


Lateron a Second guitar plays this over the Main Riff:

e:|-------------------------------|
B:|---------10--------------10----|
G:|---9---5----9--5--9----5----9--|
D:|-----7---------------7---------|
A:|-------------------------------|
E:|-------------------------------|

Tabbed by Gez
gez.rulez@gmx.at
Related for Und Mir Gehts Gut tab
Advertisement will be closed in 10 seconds