Song name
# A B C D E F G H I J K L M N O P Q R S T U V W X Y Z

Zavod - Da Ili Njet tab

This is Jano

Zavo-da ili njet

Drop D

E---------------------/-----------------------------------------------------|
B---------------------/-----------------------------------------------------|
G---------------------/-----------------------------------------------------|
D--6/5--5-6---6-6/5---/---5-5-5---8-8---------------------------------------|
A--6/5--5-6---6-6/5---/---5-5-5---8-8---------------------------------------|
D--6-5--5-6---6-6/5---/---5-5-5---8-8---------------------------------------|
     reapete 3x            PM

Reapete during the song till chorus

Chorus part

E---------------------------------------------------------------------------|
B---------------------------------------------------------------------------|
G---------------------------------------------------------------------------|
D--8-8-8-8--5-5-5-5--9-9--9-9-9--9-----9-----9-----9-----9------------------|
A--8-8-8-8--5-5-5-5--9-9--9-9-9--9-----9-----9-----9-----9------------------|
D--8-8-8-8--5-5-5-5--9-9--9-9-9--9-9-9-9-9-9-9-9-9-9-9-9-9------------------|
     PM        PM                  P M   P M   P M   P M

     Reapete 2X

Pre-Final

E---------------------------------------------------------------------------|
B---------------------------------------------------------------------------|
G---------------------------------------------------------------------------|
D--5-5--5-5-5--5--2-2--2-2-2--2--4-4--4-4-4--4-----4-----4-----4-----4------|
A--5-5--5-5-5--5--2-2--2-2-2--2--4-4--4-4-4--4-----4-----4-----4-----4------|
D--5-5--5-5-5--5--2-2--2-2-2--2--4-4--4-4-4--4-4-4-4-4-4-4-4-4-4-4-4-4------|
                                               P M   P M   P M   P M

Reapite 2X


Final

E---------------------------------------------------------------------------|
B---------------------------------------------------------------------------|
G---------------------------------------------------------------------------|
D--6/5--5-6---6-6/5--5-5--7-------------------------------------------------|
A--6/5--5-6---6-6/5--5-5--5-------------------------------------------------|
D--6-5--5-6---6-6/5--5-5----------------------------------------------------|


Thanks

 I hope it works on you
http://www.myspace.com/zavod
Tap to rate this tab
# A B C D E F G H I J K L M N O P Q R S T U V W X Y Z