Song name
# A B C D E F G H I J K L M N O P Q R S T U V W X Y Z

Zdenko Fibich - Poem tab

From: cso@cth.u-psud.fr (Equipe CSO)
Subject: TAB: Poem by Fibich


Poem  by Zdenko Fibich (1850 - 1900)
~~~~~
Arranged and tabulated 11/94 by David Atkinson.
(email: kaum0@central.susx.ac.uk)

p = pull-off
h = hammer-on
s = slide
=== = sustain

Slowly with expression.
   mf
    V....       II..........
    |   |   |    |   |   |    |   |   |    |   |   |
E-|------------|-2----------|-----0------|------------|
B-|------------|---2-2-2-2-2|-0-2---3-2-1|-3-2--------|
G-|-5-----6----|---2-2-2-2-2|-----1------|---2-2-2-2-2|
D-|---7-7---7-7|---4-4-4-4-4|-0-2---4-2-1|---2-2-2-2-2|
A-|---7-7---7-7|------------|------------|-0----------|
E-|-5---------4|-2----------|-------0----|------------|

    II...                    I.II. VII.
    |   |   |    |   |   |    |    |   |    |   |   |
E-|-------0----|-5---------4|-1-2--9-7--s5|-5s4--------|
B-|-4-2-2---2-2|---0-0-0-0-0|---2-10-9--s7|-7---7-7-5-3|
G-|---2-2---2-2|------------|---2----8-8--|-7---7-7-6-4|
D-|-4----------|-3----------|-------------|---------4--|
A-|------------|-4-4-4-4-4-4|---4---------|------------|
E-|-2-----0----|------------|-2------7----|-0-----0--(4)
                

   IX.f....IX...<  
    |     |     |     |   |   |     |     |   |    |    |   |
E-|-9)-------9)-----|-9-7-4-5-7--9|-2-----2------|-2-0-10-10-9-7|
B-|10(-10---10(-10--|10-9-6-7-9-10|-3-0---3--0---|-3-3--9--7-9--|
G-|-9)--9---11)-11--|-------------|--------------|------7--7-7-7|
D-|11(------11(-11--|-0-----------|---0------0---|---2---------9|
A-|-0)---11--9)----7|-------0-----|-2---0--------|------7----7-8|
E-|-----------------|-------------|-------4----2-|-0-------0----|

   II....                                    >          >
    |   |   |    |   |   |    |       |       |     |   |   |
E-|-5-----5----|-5-4--------|---------------------|------------|
B-|-2---2-3----|-------5----|-----------5p3-------|-3-2--------|
G-|---2---4-2-4|-6---6-6-6-6|-----4---6------6---5|---2-2-2-2-2|
D-|-----4-3-3--|-------7-7-7|-6-------------------|---2-2-2-2-2|
A-|---4--------|-------7-7-7|---------------------|-0----------|
E-|-2----------|-0----------|-0-----------0-------|------------|

   II.p........                    <        >
    |   |   |    |   |   |    |       |       |   
E-|------------|------------|---------------------|
B-|------------|------------|---------------------|
G-|-2---2-2---2|-2-1--------|---------------------|
D-|-4-4-4-3-3-3|-------2----|-2---------2p0-------|
A-|-4-4---2----|-4---4-4-0-4|-----2---4-----4--3--|
E-|-2----------|-0----------|-0-------------------|

                   II..>.....pp....
    |   |   |    |   |   |    |   |   |   
E-|------------|------------|-5----------|
B-|------------|---------2-5|-2----------|
G-|------------|-------2---2|-2----------|
D-|-0----------|-0---2---2--|-4-2========|
A-|---4--------|---4---4----|-0==========|
E-|---5-0-2-0-5|---0-5------|------------|


        -|------------------------------------------------|
        -|-Initially it seemed an easy piece to arrange---|
        -|-but...   it wasn't !   I did it anyway and ----|
        -|-although some positions are tough, I think that|
        -|-it is managable with a little practice.--------|
        -|-----------------------------------------David--|
Tap to rate this tab
# A B C D E F G H I J K L M N O P Q R S T U V W X Y Z