Guitaretab - guitar tabs
Song name
# A B C D E F G H I J K L M N O P Q R S T U V W X Y Z

Zebra - Whos Behind The Door tab

#----------------------------------PLEASE NOTE---------------------------------#
#This file is the author's own work and represents their interpretation of the #
#song. You may only use this file for private study, scholarship, or research. #
#------------------------------------------------------------------------------##
From: e77-tc@dv349-5d.berkeley.edu (David John Lovell)
Subject: Who's Behind the Door - Zebra


                      Who's Behind the Door - Zebra

		  	 12-String Guitar Intro

		        Tabbed by David J. Lovell
		       davidl@uclink.berkeley.edu

---10-----10--------------10--||------10-----10-----------10---||--10\8--8------|
------------------------------||-------------------------------||--0-----0------|
0-----------------------------||*--0-------------0-----0------*||--0-----9------|
-------0------0--------0------||*---------0-------------------*||--0-----0------|
------------------------------||-------------------------------||---------------|
------------------------------||-------------------------------||---------------|

8--8----7--7--|-----75--5--5--3--3--|--2--0--0--0--|----------------------------|
0--0----0--0--|-----0---0--0--0--0--|--0--0--3--1--|----------------------------|
9--9\7--7--7--|-----\5--5--5--4--4--|--2--0--0--0--|----------5----------9------|
0--0----0--0--|-----0---0--0--0--0--|--0--0--4--2--|----------------------------|
--------------|---------------------|--------5--3--|-------0----------0---------|
--------------|---------------------|--------------|--3/5--------5/8------------|

|---------------------------------------|-----10-----10--------------10--||-----|
|----------7----------8----------10-----|--------------------------------||-----|
|---------------------------------------|--0-----------------------------||*----|
|-------0----------0----------0------0--|---------0------0--------0------||*----|
|--3/5--------5/7--------7/9------------|--------------------------------||-----|
|---------------------------------------|--------------------------------||-----|

---10-----10-----------10---||--10\8--8--8--8----7--7--|---7-\5--5--5--3--3-----|
----------------------------||--0-----0--0--0----0--0--|---0-----0--0--0--0-----|
0-------------0-----0------*||--0-----9--9--9\7--7--7--|---7-\5--5--5--4--4-----|
-------0-------------------*||--0-----0--0--0----0--0--|---0-----0--0--0--0-----|
----------------------------||-------------------------|------------------------|
----------------------------||-------------------------|------------------------|

|--2--0--0--0--|------------------------|---------------------------------------|
|--0--0--3--1--|------------------------|----------7----------8----------10-----|
|--2--0--0--0--|----------5----------9--|---------------------------------------|
|--0--0--4--2--|------------------------|-------0----------0----------0---------|
|--------5--3--|-------0----------0-----|--3/5--------5/7--------7/9------------|
|--------------|--3/5--------5/8--------|---------------------------------------|
[ Tab from: http://www.guitaretab.com/z/zebra/21217.html ]
---||------10-----10-----------10---||--3--3--3--3--|--------------|------------|
---||-------------------------------||--0--0--0--1--|--5--3--7--5--|--8--7------|
---||*--0-------------0-----0------*||--0--0--0--0--|--0--0--0--0--|--0--0------|
0--||*---------0-------------------*||--0--0--0--2--|--0--0--0--0--|--0--0------|
---||-------------------------------||--2--2--2--3--|--3--2--5--3--|--7--5------|
---||-------------------------------||--3--3--3-----|--------------|------------|


                  strum over measure   strum over measure strum over measure
-------------||----5---------------||---3--------------|---3--------------------|
10--8--7--8--||----6---------------||---3--------------|---3--------------------|
0---0--0--0--||*---5--------------*||---3--------------|---3--------------------|
0---0--0--0--||*---0--------------*||---0--------------|---0--------------------|
9---7--5--7--||----8---------------||---0--------------|---0--------------------|
-------------||--------------------||------------------|------------------3-----|

---|--7--7--7--5--7--|--7--7-----7-----7-----7--|-------------------------------|
0--|--0--0--0--------|--------7-----5-----------|-----3--3-----3--3-----3--3----|
0--|--0--0--0--------|--------------------7-----|--5--------4-------------------|
0--|--0--0--0--------|--------------------------|--------------------7----------|
---|-----------------|--------------------------|-------------------------------|
---|-----------------|--------------------------|-------------------------------|


                          strum over measure   strum over measure
---------------------||----2---------------||---0--------------|----------------|
---3--3-----0-----0--||----0---------------||---0--------------|----------------|
0--------------------||*---0--------------*||---0--------------|----------------|
---------4-----2-----||*---4--------------*||---2--------------|----------------|
---------------------||--------------------||------------------|----------------|
---------------------||--------------------||------------------|----------------|


strum over measure    strum over measure   strum over measure
-0---------3-/5--||----2---------------||---0--------------|--------------------|
-0---------0--0--||----0---------------||---0--------------|--------------------|
-0---------0--0--||*---0--------------*||---0--------------|--------------------|
-2---------5-/7--||*---4--------------*||---2--------------|--------------------|
-----------------||--------------------||------------------|--------------------|
-----------------||--------------------||------------------|--------------------|


strum over measure
-0---------3-/5--|--------------------------------------------------------------|
-0---------0--0--|--------------------------------------------------------------|
-0---------0--0--|--------------------------------------------------------------|
-2---------5-/7--|--------------------------------------------------------------|
-----------------|--------------------------------------------------------------|
-----------------|--------------------------------------------------------------|

================================================================================
==           Created with a shareware version of the BUCKET 'O TAB            ==
==                  tablature creation software for Windows                   ==
==                           For more information:                            ==
==                          email: gse@ocsystems.com                          ==
==      US Mail: The Bucket, 3176-B5 Summit Square Dr., Oakton, VA 22124      ==
================================================================================
Related for Whos Behind The Door tab
×
Best way to learn
"Whos Behind The Door"