Song name
# A B C D E F G H I J K L M N O P Q R S T U V W X Y Z

Zebrahead - Lobotomy For Dummies tab

--       Band: Zebrahead        --

--  Song: Lobotomy for Dummies  --

--       Tuning: Drop D         --

--       Tabbed by Brady        --


Intro:
e|-----------------------------------|
B|-----------------------------------|
G|-6-6-xxxx----------6-6-xxxx--------|
D|-6-6-xxxx-3-3-xxxx-6-6-xxxx--6-4-3-|
A|-4-4-xxxx-3-3-xxxx-4-4-xxxx--6-4-3-|
D|----------3-3-xxxx-----------6-4-3-|


Verse:
e|------------------------------|
B|------------------------------|
G|-6/---------6-6---------------|
D|-6/---3-3---6-6---3-3---6-4-3-|
A|-4/---3-3---4-4---3-3---6-4-3-|
D|------3-3---------3-3---6-4-3-|


Verse 2:
e|-------------------------------|
B|-------------------------------|
G|-6-6---------6-6---------------|
D|-6-6---3-3---6-6---4-3-4-6-4-3-|
A|-4-4---3-3---4-4---4-3-4-6-4-3-|
D|-------3-3---------4-3-4-6-4-3-|


Chorus: (Sorry, I didnt figured out how often to Strumming, but its easy :))
e|-------------------------------|
B|-------------------------------|
G|-6-------6-------6-------------|
D|-6---6---6---4---6---6---4---6-|
A|-4---6---4---4---4---6---4---6-|
D|-----6-------4-------6---4---6-|

e|-----------------------------------|
B|-----------------------------------|
G|-6-6-xxxx----------6-6-xxxx--------|
D|-6-6-xxxx-3-3-xxxx-6-6-xxxx--6-4-3-|
A|-4-4-xxxx-3-3-xxxx-4-4-xxxx--6-4-3-|
D|----------3-3-xxxx-----------6-4-3-|


Solo: (I just figured out the Chords behind the Solo, sorry again)
e|-------------------|
B|-------------------|
G|-6-----------------|
D|-6---6---4---3---4-|
A|-4---6---4---3---4-|
D|-----6---4---3---4-|


End:
e|-----|
B|-----|
G|-6~--|
D|-6~--|
A|-4~--|
D|-----|
Order:

Intro    4x
Verse
Verse2
Chorus
Intro
Verse
Verse
Verse2
Chorus
Intro
Solo    2x
Verse   3x
Verse2
Chorus  2x
Intro   2x
End

Comment:

I hope i make it good :) Please Rate and feel free to distrub this Tab.
I just except, if you distrub this Tab please dont sign it with your name
If you changed something on this Tab then Write you name under my name with
the comment that you have changed it.

Have fun with this Tab :) Its a very cool song
Tap to rate this tab
# A B C D E F G H I J K L M N O P Q R S T U V W X Y Z