Song name
# A B C D E F G H I J K L M N O P Q R S T U V W X Y Z

Zebrahead - Mike Dexter Is A God tab

This should be 100% correct

Intro:
-------------------------------------------------------|
-------------------------------------------------------|
-------------------------------------------------------|
---------4-6-4----------------4-6-4-7-6----------------|
--4-6-7---------6-7----4-6-7---------------------------|
-------------------------------------------------------|


-------------------------------------------------------|
-------------------------------------------------------|
-------------------------------------------------------|
---------4-6-4-------------------4---------------------|
--4-6-7--------6-7-6-7--------------7------------------|
-----------------------4-5-4-5-------------------------|

Verse:
-------------------------------------------------------|
-9-9-9-9--7-7-7-7--9-9-9-9--5-5-5-5--------------------|
-9-9-9-9--8-8-8-8--9-9-9-9--6-6-6-6--------------------|
-------------------------------------------------------|
-------------------------------------------------------|
-------------------------------------------------------|

Solo:

-------------------------------------------------------|
---------101010--9-7-9-7-5-4-5-7-----------------------|
--666-8--------------------------6---------------------|
-------------------------------------------------------|
-------------------------------------------------------|
-------------------------------------------------------|


-------------------------------------------------------|
---------101010--9-7-9-7-5-4-5-7-4-5-7-----------------|
--666-8--------------------------------6---------------|
-------------------------------------------------------|
-------------------------------------------------------|
-------------------------------------------------------|


-------------------------------------------------------|
--999--7--5-5--5>7-----101010--9-7-5-------------------|
--999--8--6-6--6>8-----111111--9-8-6-------------------|
-------------------------------------------------------|
-------------------------------------------------------|
-------------------------------------------------------|


-------------------------------------------------------|
--999--7--5-5-5>7------101010--9-7---4-5-10-9----------|
--999--8--6-6-6>8------111111--9-8---4-6-11-9----------|
-------------------------------------------------------|
-------------------------------------------------------|
-------------------------------------------------------|

Outro Verse:
--------------------------------------------------------|
--------------------------------------------------------|
---9------------6---------------------------------------|
---9-x8---9-----6x8----7--------------------------------|
---7------9x8---4------7x8------------------------------|
----------7------------5--------------------------------|

End on:
------|
------|
--9---|
--9---|
--7---|
------|

There you have it, mail me if you find any problems.
Tap to rate this tab
# A B C D E F G H I J K L M N O P Q R S T U V W X Y Z