Song name
# A B C D E F G H I J K L M N O P Q R S T U V W X Y Z

Zebrahead - Get Back tab

Artist: Zebrahead
Song: Get Back
Album: Waste of Mind
E-Mail: beefynerd@www.com
Tabbed by Jeremy Burgess

This song was Zebraheads first single, and the intro was kindof hard to figure out, but heres what I got:

Intro and verses (guitar one):

E|-----------------------------------
B|-----------------------------------
G|-----------------------------------
D|-------------5---------------------
A|---7---7-5-----7---7---7---7-5-----
E|-5---8-----7-----5---8---5-----7---

Intro and verses (guitar two):

E|-------------------------------------------------
B|-------------------------------------------------
G|-------------------------------------------------
D|-x-x-7-x-x-7-x-x-7-x-x-7-x-x-7-x-x-7-x-x-7-6-7---
A|-x-x-7-x-x-7-x-x-7-x-x-7-x-x-7-x-x-7-x-x-7-6-7--- 
E|-x-x-5-x-x-5-x-x-5-x-x-5-x-x-5-x-x-5-x-x-5-4-5---

Pre-chorus riff:

E|---------------------
B|---------------------
G|---------------------
D|-7---8-8-8-8-8-6-7---
A|-7---8-8-8-8-8-6-7---
E|-5---6-6-6-6-6-4-5---

Chorus:

E|-----------------
B|-----------------
G|-----7-------3---
D|-5---7---3---3---
A|-5---5---3---1---
E|-3-------1-------

Well thats the whole song.  E-mail me if you have any questions.
Tap to rate this tab
 
# A B C D E F G H I J K L M N O P Q R S T U V W X Y Z