Song name
# A B C D E F G H I J K L M N O P Q R S T U V W X Y Z

Zebrahead - Hate tab

zebrahead
The Yellow tabs
by Ryan

Hate - standard tuning

Intro
=======
1)--9---9--------8-
2)--9------9-----8-
3)-10---------9--8-
4)-11-----------10-
5)-11-----------10-
6)--9------------8-

Riff 1
=======
1)-----------------
2)-----------------
3)-----------------
4)-4-4-3-6-6-3-4-3-
5)-4-4-3-6-6-3-4-3-
6)-2-2-1-4-4-1-2-1-
  |    p.m.   |

Fill 1
=======
1)--9---//22-22-22-22//---//22-22-22-22-//---
2)--9----------------------------------------
3)--9----------------------------------------
4)-11----------------------------------------
5)-11----------------------------------------
6)--9----------------------------------------

Riff 2
=======
1)----------
2)----------
3)----7-6-5-
4)-5--------
5)----------
6)----------

Riff 3
=======
1)----------
2)----------
3)----7-6-5-
4)-5--7-6-5-
5)-5--5-4-3-
6)-3--------

Riff 4
=======
1)-5-----7-
2)-5-----9-
3)-6-----9-
4)-7-----9-
5)-7-----7-
6)-5-------
Tap to rate this tab
 
# A B C D E F G H I J K L M N O P Q R S T U V W X Y Z