Song name
# A B C D E F G H I J K L M N O P Q R S T U V W X Y Z

Zebrahead - Mind Trip tab

Zebrahead
The Yellow tabs
by Ryan

Mindtrip - Standard tuning

Riff 1
========
1)----------------------------------15-16-15-
2)-------15-15-17-17-15-15----15-15----------
3)-16-16-------------------16----------------
4)-------------------------------------------
5)-------------------------------------------
6)-------------------------------------------

1)-----------------------------------
2)-------15-15-17-17-15-15-----------
3)-16-16-------------------14-14-14b-
4)-----------------------------------
5)-----------------------------------
6)-----------------------------------

Riff 2
=======
1)-------------------
2)-------------------
3)-------------------
4)-2-5-7-2-2-2-5-7-5-
5)-2-5-7-2-2-2-5-7-5-
6)-0-3-5-0-0-0-3-5-3-
  |       p.m.      |

Chorus
========
1)---------
2)---------
3)---------
4)-2---2---
5)-2---2---
6)-0---0---

Bridge 1
========
1)--------0--0--0-0-------------------------
2)-5--5-5-0--0--0-0-------------------------
3)-5--5-5-1--1--1-1-------------------------
4)-5--5-5-2--2--2-2-----2-----2-----2-----2-
5)-3--3-3-2--2--2-2-3-3---3-3---3-3---3-3---
6)--------0--0--0-0-------------------------
Tap to rate this tab
 
# A B C D E F G H I J K L M N O P Q R S T U V W X Y Z