Song name
# A B C D E F G H I J K L M N O P Q R S T U V W X Y Z

Zebrahead - Fear tab

Artist: Zebrahead
Album:  MFZB
Song:   The Fear

Tabbed By Brian Btuami

Intro
   e|--------------------|        |---------------|
   B|--------------------|        |---------------|
   G|--7777-555----------| x6     |---------------|
   D|-----------444-444--|  then  |---------------|
   A|--5555-333-444-444--|        |---------------|
   E|-----------222-222--|        |--5555-00-4-0--|
   pm                                .... .. . .

Verse (Clean with delay)
   e|--2~------------|     |---------------------|
   B|--2~---7~---6~--|     |---------------------|
   G|--3~---7~---6~--| x2  |--77777777-66666666--| Pickslide
   D|--4~---7~---6~--|     |--77777777-66666666--|
   A|--4~---5~---4~--|     |--55555555-44444444--|
   E|--2~---5~---4~--|     |--55555555-44444444--|
   pm                         ........ ........ 

Chorus
   e|---------------------------------------------------------|
   B|-77----77----1010----1010-------99----99----1010----1010-|
   G|----66----66------66------66-66----66----66------66------| x2
   D|---------------------------------------------------------|
   A|---------------------------------------------------------|
   E|---------------------------------------------------------|

   e|--------------------------------------|
   B|--------------------------------------|
   G|----------77777777----------66666666--| x2
   D|-44444444-77777777-77777777-66666666--|
   A|-44444444-55555555-77777777-44444444--|
   E|-22222222----------55555555-----------|

Intro

Verse

Chorus x4

Bridge
   e|-------------------------------------------|
   B|-------------------------------------------|
   G|--6----6----6----6----7----7----9----9-----| x3
   D|--6-xx-6-xx-6-xx-6-xx-7-xx-7-xx-9-xx-9-xx--|
   A|--4-xx-4-xx-4-xx-4-xx-5-xx-5-xx-7-xx-7-xx--|
   E|----xx---xx---xx---xx---xx---xx---xx---xx--|

   e|-----------------------------------------|
   B|-----------------------------------------|
   G|--6----6----6----6----77777777-99999999--|
   D|--6-xx-6-xx-6-xx-6-xx-77777777-99999999--|
   A|--4-xx-4-xx-4-xx-4-xx-55555555-77777777--|
   E|----xx---xx---xx---xx--------------------|

Verse

Chorus x5

Intro



Should be 100%. Comments, questions, death threats, or requests email me at divine236@gmail.com

Register at MFZB.com for cool ZH stuff!
Tap to rate this tab
# A B C D E F G H I J K L M N O P Q R S T U V W X Y Z