Song name
# A B C D E F G H I J K L M N O P Q R S T U V W X Y Z

Zebrahead - The Art Of Breaking Up tab

-------------------------------------------------------------------------------
			     The Art Of Breaking Up - Zebrahead
-------------------------------------------------------------------------------
Tabbed by: whybutyeah
Email: chu_john62066@yahoo.com

Tuning: Standard

(I don't have the leads for this song)

Intro
e|------------------|
B|------------------|
G|-33xxxx--33xxxx---|
D|-33xxxx--33xxxx---|
A|-11xxxx--11xxxx---|
E|------------------|

Intro 2
e|--------------------------------------------------|
B|--------------------------------------------------|
G|-------55---------33---------55-------------------|
D|-3333xx55---5555xx33---3333xx55---5555------------| 2x
A|-3333xx33---5555xx11---3333xx33---5555------------|
E|-1111xx-----3333xx-----1111xx-----3333--6-4-3-5---|

Verse: Ali
e|----------------------------------|
B|----------------------------------|
G|-------55--33-----------33--------|
D|-3333--55--33-----5555--33--77\---| 2x
A|-3333--33--11-----5555--11--77\---|
E|-1111-------------3333------55\---|

Verse: Matty
e|---------------------------------------------------------|
B|---------------------------------------------------------|
G|------------------5------5--------------------3------3---|
D|----3------3---55-5-5555-5------5------5---33-3-3333-3---|
A|-33-3-3333-3---33-3-3333-3---55-5-5555-5---11-1-1111-1---|
E|-11-1-1111-1-----------------33-3-3333-3-----------------|
pm ..   ....     ..   ....     ..   ....     ..   .... .

Verse: Matty
e|-----------------------------------------------------------|
B|-----------------------------------------------------------|
G|------------------5------5-----------------33xxxx-33xxxx---|
D|----3------3---55-5-5555-5------5------5---33xxxx-33xxxx---|
A|-33-3-3333-3---33-3-3333-3---55-5-5555-5---11xxxx-11xxxx---|
E|-11-1-1111-1-----------------33-3-3333-3-------------------|
pm ..   ....     ..   ....     ..   ....     

Chorus
e|---------------------------------------------|
B|---------------------------------------------|
G|-------55---------33---------55---------33---|
D|-3333xx55---5555xx33---3333xx55---5555--33---| 
A|-3333xx33---5555xx11---3333xx33---5555--11---|
E|-1111xx-----3333xx-----1111xx-----3333-------|

e|--------------------------------------------------|
B|--------------------------------------------------|
G|-------55---------33---------55-------------------|
D|-3333xx55---5555xx33---3333xx55---5555------------| 
A|-3333xx33---5555xx11---3333xx33---5555------------|
E|-1111xx-----3333xx-----1111xx-----3333--6-4-3-5---|

after the chorus u play:
Intro 2, but 1 time
Verse: Ali
Verse: Matty
Chorus

Bridge
e|---------------------------------------|
B|---------------------------------------|
G|-33333333-55555555---------------------|
D|-33333333-55555555-77777777-33333333---|
A|-11111111-33333333-77777777-33333333---|
E|-------------------55555555-11111111---|

e|-----|
B|-----|
G|-----|
D|--3--| 24x
A|--3--|
E|--1--|
pm  .

e|------------------------------------|
B|------------------------------------|
G|-33xxxx--33xxxx--33xxxx--33333333---|
D|-33xxxx--33xxxx--33xxxx--33333333---|
A|-11xxxx--11xxxx--11xxxx--11111111---|
E|------------------------------------|

Play Verse:Ali during the solo
then:
Chorus
Intro 2, two times

Last Chorus
e|----------------------------------------------------------------|
B|----------------------------------------------------------------|
G|-------55--------33--------55-----------------------------------|
D|-3333xx55--5555xx33--3333xx55--55xxxx--55xxxx--55xxxx-----------|
A|-3333xx33--5555xx11--3333xx33--55xxxx--55xxxx--55xxxx-----------|
E|-1111xx----3333xx----1111xx----33xxxx--33xxxx--33xxxx-6-4-3-5---|

End On...
e|----|
B|----|
G|----|
D|-3--|
A|-3--|
E|-1--|


| /  slide up
| \  slide down
| h  hammer-on
| p  pull-off
| ~  vibrato
| +  harmonic
| x  Mute note
Tap to rate this tab
# A B C D E F G H I J K L M N O P Q R S T U V W X Y Z