Song name
# A B C D E F G H I J K L M N O P Q R S T U V W X Y Z

Zebrahead - Expectations tab

------------------------------------------|
------------------------------------------|
---15b--15p14-12h14b--12/21~-21p19-17-16~-|
------------------------------------------|
------------------------------------------|
------------------------------------------|

------------------------------------------|
------------------------------------------|
---------------15h16p15-------------------|
---------17h19----------17-19p17-17~------|
---17h19----------------------------------|
------------------------------------------|

--------------------------------------------------|
--------------------------------------------------|
---------------15h16p15---------------------------|
---------17h19----------17-19p17-17~-17-----------|
---17h19--------------------------------17h19p17--|
--------------------------------------------------|

----------------------------------------|
----------------------------------------|
---------------15h16p15-----------------|
---------17h19----------17-19p17-17~----|
---17h19--------------------------------|
----------------------------------------|

-----------------------------------------------------------|
---------------------15h17-17h19p17-15-17h15-17-15-17-19b--|
---------------15h16---------------------------------------|
---------17h19---------------------------------------------|
---17h19---------------------------------------------------|
-----------------------------------------------------------|
Tap to rate this tab
# A B C D E F G H I J K L M N O P Q R S T U V W X Y Z