Song name
# A B C D E F G H I J K L M N O P Q R S T U V W X Y Z

Zebrahead - Survivor tab

-------------------------------------------------------------------------------
			    SURVIVOR - Zebrahead
-------------------------------------------------------------------------------
Tabbed by: alliwant
Email: stott_vivi@lycos.com

A cool little cover off the Panty Raid record.

Tuning: Eb Standard

Intro/Main Riff

   Ebm                     B                       Bb  
e|----------------------------------20----------------------19-------------|
B|-17----17-19-20-19-17-------17-20----20-17----17----16-19----19-16----16-|
G|----16----------------16-17----------------17----16----------------16----|
D|-------------------------------------------------------------------------|
A|-------------------------------------------------------------------------|
E|-------------------------------------------------------------------------|

   Ebm
e|----------------------19-------------------------------------------------|
B|-17----17-19----16-19----------------------------------------------------|
G|----16-------16----------------------------------------------------------|
D|-------------------------------------------------------------------------|
A|-------------------------------------------------------------------------|
E|-------------------------------------------------------------------------|


Guitar 2 Rhythm Intro 
e|----------|------------------------------------------|
B|-Pickslide|------------------------------------------|
G|----------|-----------5-5---5-5-4-4---4-4------------|
D|----------|-2-2---2-2-5-5---5-5-4-4---4-4-2-2---2-2--|
A|----------|-2-2---2-2-3-3---3-3-2-2---2-2-2-2---2-2--|
E|-x\\\\\---|-0-0---0-0---------------------0-0---0-0--|

Verse (Palm Mute throughout)
e|------------------------|
B|------------------------|
G|-------55----44---------|
D|-22----55----44---22----| x3
A|-22----33----22---22----|
E|-00---------------00----|

e|-------------------------------------|
B|-------------------------------------|
G|-------55----44----------------------|
D|-22----55----44----2-2---------------|
A|-22----33----22----2-2----Pick-Slide-|
E|-00----------------0-0----x\\\\\\\\\-|

Chorus
e|-----------------------------------------|
B|-----------------------------------------|
G|--MAIN RIFF + RHYTHM INTRO---------------| X4
D|-----------------------------------------|
A|-----------------------------------------|
E|-----------------------------------------|

Bridge (1.58-2.08)
e|-0-|
B|-0-|
G|-0-| held
D|-2-|
A|-2-|
E|-0-|

(2.08) Palm Muted
e|-------------------------------------|
B|-------------------------------------|
G|----------55555555-44444444----------|
D|-22222222-55555555-44444444-22222222-| x2
A|-22222222-33333333-22222222-22222222-|
E|-00000000-------------------00000000-|

Solo (2.51)
e|-----------------------------------------15p12--14p12-----15p12--14p12--|
B|----------------------17~~~17~~~17~~~~--------12-----12--------12-----12|
G|-16-14-----17-16-14-----------------------------------------------------|
D|-------17---------------------------------------------------------------|
A|------------------------------------------------------------------------|
E|------------------------------------------------------------------------|

e|---------------------------------------------|
B|---------------------------------------------|
G|-16p14p12-14p12p11-------20-19-15-17-(19)-17-|
D|----------------------16---------------------|
A|---------------------------------------------|
E|---------------------------------------------|

Order:
Intro/Main Riff x4
Main Riff + Rhythm Intro x4
Verse (Main Riff comes in on 3rd repeat)
Chorus x2
Verse (Main Riff on 3rd repeat)
Chorus x2
Bridge
Chorus x2
Verse (only 2 repeats)
Solo (with verse rhythm)
Chorus x2
End (Eb power chord)

************************************

| /   slide up
| \   slide down
| h   hammer-on
| p   pull-off
| ~   vibrato
| +   harmonic
| x   Mute note
| b   Bend
| pb  Pre-bend
| br  Bend release
| pbr Pre-bend release
| brb Bend release bend

************************************
Tap to rate this tab
# A B C D E F G H I J K L M N O P Q R S T U V W X Y Z