Song name
# A B C D E F G H I J K L M N O P Q R S T U V W X Y Z

Zebrahead - The Sweet Escape tab

-----------------------------------------------------------------
The Sweet Escape - Zebrahead
-----------------------------------------------------------------
Tabbed by: Bair
Email: bair_morritt@hotmail.com

Tuning: Standard

Intro:
e|----------------------------------|
B|----------------------------------|
G|--33--6-66--88--------------------|
D|--33--6-66--88--4-44--(X4)--------|
A|--11--4-44--66--4-44--------------|
E|----------------2-22--------------|

Verse: (Just Bass)

Chorus:
e|--------------------------------------------------------|
B|--------------------------------------------------------|
G|--6666--5555--3333--------------------------------------|
D|--6666--5555--3333--6666--4444--3333--4444--6666--(X2)--|
A|--4444--3333--1111--6666--4444--3333--4444--6666--------|
E|--------------------4444--2222--1111--2222--4444--------|
"If I could escape and recreate a place that's my own world...."

Post- Chorus:
e|----------------------------------|
B|----------------------------------|
G|--33--6-66--88--------------------|
D|--33--6-66--88--4-44--(X4)--------|
A|--11--4-44--66--4-44--------------|
E|----------------2-22--------------|

Verse 2: (Just Bass)

Pre-Chorus:
e|----------------------------------|
B|----------------------------------|
G|--33--6-66--88--------------------|
D|--33--6-66--88--4-44--(X4)--------|
A|--11--4-44--66--4-44--------------|
E|----------------2-22--------------|
"So baby, times get a little crazy...."

Chorus:
e|-----------------------------------------------------------|
B|-----------------------------------------------------------|
G|--6666--5555--3333--------------------------------------3--|
D|--6666--5555--3333--6666--4444--3333--4444--6666--(X2)--3--|
A|--4444--3333--1111--6666--4444--3333--4444--6666--------1--|
E|--------------------4444--2222--1111--2222--4444-----------|
"If I could escape and recreate a place that's my own world...."

Pre-Chorus:
e|----------------------------------|
B|----------------------------------|
G|--33--6-66--88--------------------|
D|--33--6-66--88--4-44--(X4)--------|
A|--11--4-44--66--4-44--------------|
E|----------------2-22--------------|
"Cause I've been acting like sour milk all on the floor...."

Chorus:
e|--------------------------------------------------------|
B|--------------------------------------------------------|
G|--6666--5555--3333--------------------------------------|
D|--6666--5555--3333--6666--4444--3333--4444--6666--(X2)--|
A|--4444--3333--1111--6666--4444--3333--4444--6666--------|
E|--------------------4444--2222--1111--2222--4444--------|
"If I could escape and recreate a place that's my own world...."

Pre-Chorus:
e|----------------------------------|
B|----------------------------------|
G|--33--6-66--88--------------33----|
D|--33--6-66--88--4-44--(X4)--33----|
A|--11--4-44--66--4-44--------11----|
E|----------------2-22--------------|
_________________________________________________________________________
Lyrics:

If I could escape I would but,
First of all, let me say
I must apologize for acting stank & treating you this way
Cause I've been acting like sour milk all on the floor
It's your fault you didn't shut the refrigerator
Maybe that's the reason I've been acting so cold?

If I could escape & recreate a place that's my own world
& I could be your favourite girl (forever), Perfectly together
Tell me boy now wouldn't that be sweet? (sweet escape)
If I could be sweet, I know I've been a real bad girl (I'll try to change)
I didn't mean for you to get hurt (whatsoever)
We can make it better, Tell me boy wouldn't that be sweet? (sweet escape)

You held me down, I'm at my lowest boiling point
Come help me out, I need to get me out of this joint
Come on let's bounce, counting on you to turn me around
Instead of clowning around, let's look for some common ground
So baby, times get a little crazy
I've been gettin' a little lazy, waitin' on you to come save me
I can see that you're angry by the way that you treat me
Hopefully you don't leave me, wanna take you with me

If I could escape & recreate a place that's my own world
& I could be your favourite girl (forever), Perfectly together
& tell me boy now wouldn't that be sweet? (sweet escape)
If I could be sweet (sorry boy)
I know I've been a real bad girl (I'll try to change)
I didn't mean for you to get hurt (whatsoever)
We can make it better
& tell me boy now wouldn't that be sweet? (sweet escape)

Woohoo, Yeehoo
Woohoo, Yeehoo (If I could escape)
Woohoo, yeehoo (If I could escape)
Woohoo, Yeehoo

Cause I've been acting like sour milk all on the floor
It's your fault you didn't shut the refrigerator
Maybe that's the reason I've been acting so cold?

If I could escape & recreate a place that's my own world
& I could be your favourite girl (forever), Perfectly together
& tell me boy now wouldn't that be sweet? (sweet escape)
If I could be sweet (sorry boy)
I know I've been a real bad girl (I'll try to change)
I didn't mean for you to get hurt (whatsoever)
We can make it better
& tell me boy now wouldn't that be sweet? (sweet escape)

Woohoo, Yeehoo (I wanna get away, get away)
Woohoo, Yeehoo (To our sweet escape)
Woohoo, Yeehoo (I wanna get away)
Woohoo, Yeehoo (Yeah)
Woohoo, Yeehoo
Woohoo, Yeehoo 
Tap to rate this tab
# A B C D E F G H I J K L M N O P Q R S T U V W X Y Z