Song name
# A B C D E F G H I J K L M N O P Q R S T U V W X Y Z

Zebrahead - Wake Me Up tab

This Tab is for Guitar 2
The Rhythm I guess

------------------------------------------------------------------------------
Intro
------------------------------------------------------------------------------

e|---------------------------------------------------------------------------|
B|---------------------------------------------------------------------------|
G|-44-44-44-----------77-77-77------------------------------99-99-99---------|
D|-44-44-44-----------77-77-77-----------55-55-55-----------99-99-99---------|
A|-22-22-22-----------55-55-55-----------55-55-55-----------77-77-77---------|
E|---------------------------------------33-33-33----------------------------|

            Guitar 1           Guitar 1            Guitar 1         Guitar 1

------------------------------------------------------------------------------
Pre-Verse
------------------------------------------------------------------------------

e|---------------------------------------------------------------------------|
B|---------------------------------------------------------------------------|
G|-4444444444444444-7777777777777777------------------9999999999999999-------|
D|-4444444444444444-7777777777777777-7777777777777777-9999999999999999-------|
A|-2222222222222222-5555555555555555-7777777777777777-7777777777777777-------|
E|-----------------------------------5555555555555555------------------------|

------------------------------------------------------------------------------
Verse
------------------------------------------------------------------------------

e|---------------------------------------------------------------------------|
B|---------------------------------------------------------------------------|
G|-44-44-44-----------77-77-77--------------------------------99-99-99-------|
D|-44-44-44-----------77-77-77------------55-55-55------------99-99-99-------|
A|-22-22-22-----------55-55-55------------55-55-55------------77-77-77-------|
E|----------------------------------------33-33-33---------------------------|


e|---------------------------------------------------------------------------|
B|---------------------------------------------------------------------------|
G|-44-44-44-----------77-77-77--------------------------------99-99-99-------|
D|-44-44-44-----------77-77-77------------55-55-55------------99-99-99-------|
A|-22-22-22-----------55-55-55------------55-55-55------------77-77-77-------|
E|----------------------------------------33-33-33---------------------------|

e|-----------------|
B|-----------------|
G|-44-44-44-44-4-4-|
D|-44-44-44-44-4-4-|
A|-22-22-22-22-2-2-|
E|-----------------|

------------------------------------------------------------------------------
Chorus
------------------------------------------------------------------------------

e|---------------------------------------------------------------------------|
B|---------------------------------------------------------------------------|
G|-7777777777777777----------------------------------------------------------|
D|-7777777777777777-7777777777777777-9999999999999999-7777777777777777-------|
A|-5555555555555555-7777777777777777-9999999999999999-7777777777777777-------|
E|------------------5555555555555555-7777777777777777-5555555555555555-------|

e|---------------------------------------------------------------------------|
B|---------------------------------------------------------------------------|
G|-7777777777777777----------------------------------------------------------|
D|-7777777777777777-7777777777777777-9999999999999999-7777777777777777-------|
A|-5555555555555555-7777777777777777-9999999999999999-7777777777777777-------|
E|------------------5555555555555555-7777777777777777-5555555555555555-------|

e|-------------------------------------------------------------------|
B|-------------------------------------------------------------------|
G|-------------------------------------------------------------------|
D|-99999999-77777777--555555555555555--------------------------------|
A|-99999999-77777777--555555555555555--------------------------------|
E|-77777777-55555555--333333333333333--------------------------------|

e|-------------------------------------------------------|
B|-------------------------------------------------------|
G|-------------------------------------------------------|
D|-99999999-77777777---5~--------------------------------|
A|-99999999-77777777---5~--------------------------------|
E|-77777777-55555555---3~--------------------------------|

------------------------------------------------------------------------------
Pre-Verse
------------------------------------------------------------------------------

e|---------------------------------------------------------------------------|
B|---------------------------------------------------------------------------|
G|-4444444444444444-7777777777777777------------------9999999999999999-------|
D|-4444444444444444-7777777777777777-7777777777777777-9999999999999999-------|
A|-2222222222222222-5555555555555555-7777777777777777-7777777777777777-------|
E|-----------------------------------5555555555555555------------------------|

------------------------------------------------------------------------------
Verse
------------------------------------------------------------------------------

e|---------------------------------------------------------------------------|
B|---------------------------------------------------------------------------|
G|-44-44-44-----------77-77-77--------------------------------99-99-99-------|
D|-44-44-44-----------77-77-77------------55-55-55------------99-99-99-------|
A|-22-22-22-----------55-55-55------------55-55-55------------77-77-77-------|
E|----------------------------------------33-33-33---------------------------|


e|---------------------------------------------------------------------------|
B|---------------------------------------------------------------------------|
G|-44-44-44-----------77-77-77--------------------------------99-99-99-------|
D|-44-44-44-----------77-77-77------------55-55-55------------99-99-99-------|
A|-22-22-22-----------55-55-55------------55-55-55------------77-77-77-------|
E|----------------------------------------33-33-33---------------------------|

e|-----------------|
B|-----------------|
G|-44-44-44-44-4-4-|
D|-44-44-44-44-4-4-|
A|-22-22-22-22-2-2-|
E|-----------------|

------------------------------------------------------------------------------
Chorus
------------------------------------------------------------------------------

e|---------------------------------------------------------------------------|
B|---------------------------------------------------------------------------|
G|-7777777777777777----------------------------------------------------------|
D|-7777777777777777-7777777777777777-9999999999999999-7777777777777777-------|
A|-5555555555555555-7777777777777777-9999999999999999-7777777777777777-------|
E|------------------5555555555555555-7777777777777777-5555555555555555-------|

e|---------------------------------------------------------------------------|
B|---------------------------------------------------------------------------|
G|-7777777777777777----------------------------------------------------------|
D|-7777777777777777-7777777777777777-9999999999999999-7777777777777777-------|
A|-5555555555555555-7777777777777777-9999999999999999-7777777777777777-------|
E|------------------5555555555555555-7777777777777777-5555555555555555-------|

e|-------------------------------------------------------------------|
B|-------------------------------------------------------------------|
G|-------------------------------------------------------------------|
D|-99999999-77777777--555555555555555--------------------------------|
A|-99999999-77777777--555555555555555--------------------------------|
E|-77777777-55555555--333333333333333--------------------------------|

e|-------------------------------------------------------|
B|-------------------------------------------------------|
G|-------------------------------------------------------|
D|-99999999-77777777---5~--------------------------------|
A|-99999999-77777777---5~--------------------------------|
E|-77777777-55555555---3~--------------------------------|


-----------------------------------------------------------------------------
Guitar 1 SOLO

Guitar 2 plays this below
-----------------------------------------------------------------------------

e|---------------------------------------------------------------------------|
B|---------------------------------------------------------------------------|
G|-4444444444444444-7777777777777777------------------9999999999999999-------|
D|-4444444444444444-7777777777777777-7777777777777777-9999999999999999-------|
A|-2222222222222222-5555555555555555-7777777777777777-7777777777777777-------|
E|-----------------------------------5555555555555555------------------------|

e|---------------------------------------------------------------------------|
B|---------------------------------------------------------------------------|
G|-4444444444444444-7777777777777777------------------9999999999999999-------|
D|-4444444444444444-7777777777777777-7777777777777777-9999999999999999-------|
A|-2222222222222222-5555555555555555-7777777777777777-7777777777777777-------|
E|-----------------------------------5555555555555555------------------------|

------------------------------------------------------------------------------
Break
------------------------------------------------------------------------------

e|---------------------------------------------------------------------------|
B|---------------------------------------------------------------------------|
G|-44-44-44-----------77-77-77------------------------------99-99-99---------|
D|-44-44-44-----------77-77-77-----------77-77-77-----------99-99-99---------|
A|-22-22-22-----------55-55-55-----------77-77-77-----------77-77-77---------|
E|---------------------------------------55-55-55----------------------------|

            Guitar 1            Guitar 1           Guitar 1

e|---------------------------------------------------------------------------|
B|---------------------------------------------------------------------------|
G|-44-44-44-----------77-77-77------------------------------99-99-99---------|
D|-44-44-44-----------77-77-77-----------77-77-77-----------99-99-99---------|
A|-22-22-22-----------55-55-55-----------77-77-77-----------77-77-77---------|
E|---------------------------------------55-55-55----------------------------|

            Guitar 1            Guitar 1           Guitar 1

e|---------------------------------------------------------------------------|
B|---------------------------------------------------------------------------|
G|-44-44-44-----------77-77-77------------------------------99-99-99---------|
D|-44-44-44-----------77-77-77-----------77-77-77-----------99-99-99---------|
A|-22-22-22-----------55-55-55-----------77-77-77-----------77-77-77---------|
E|---------------------------------------55-55-55----------------------------|

            Guitar 1            Guitar 1           Guitar 1

e|---------------------------------------------------------------------------|
B|---------------------------------------------------------------------------|
G|---------------------------------------------------------------------------|
D|-------------------------------------------------///--------------///------|
A|-------------------------------------------------///Slow Pickslide///------|
E|-------------------------------------------------///--------------///------|

------------------------------------------------------------------------------
Final Chorus
------------------------------------------------------------------------------

e|---------------------------------------------------------------------------|
B|---------------------------------------------------------------------------|
G|-7777777777777777----------------------------------------------------------|
D|-7777777777777777-7777777777777777-9999999999999999-7777777777777777-------|
A|-5555555555555555-7777777777777777-9999999999999999-7777777777777777-------|
E|------------------5555555555555555-7777777777777777-5555555555555555-------|

e|---------------------------------------------------------------------------|
B|---------------------------------------------------------------------------|
G|-7777777777777777----------------------------------------------------------|
D|-7777777777777777-7777777777777777-9999999999999999-7777777777777777-------|
A|-5555555555555555-7777777777777777-9999999999999999-7777777777777777-------|
E|------------------5555555555555555-7777777777777777-5555555555555555-------|

e|-------------------------------------------------------------------|
B|-------------------------------------------------------------------|
G|-------------------------------------------------------------------|
D|-99999999-77777777--555555555555555--------------------------------|
A|-99999999-77777777--555555555555555--------------------------------|
E|-77777777-55555555--333333333333333--------------------------------|

e|-------------------------------------------------------------------|
B|-------------------------------------------------------------------|
G|-------------------------------------------------------------------|
D|-99999999-77777777--555555555555555--------------------------------|
A|-99999999-77777777--555555555555555--------------------------------|
E|-77777777-55555555--333333333333333--------------------------------|

e|-------------------------------------------------------------------|
B|-------------------------------------------------------------------|
G|-------------------------------------------------------------------|
D|-99999999-77777777--555555555555555--------------------------------|
A|-99999999-77777777--555555555555555--------------------------------|
E|-77777777-55555555--333333333333333--------------------------------|

e|---------------------------------------------------------------------------|
B|---------------------------------------------------------------------------|
G|-4444444444444444-7777777777777777------------------9999999999999999-------|
D|-4444444444444444-7777777777777777-7777777777777777-9999999999999999-------|
A|-2222222222222222-5555555555555555-7777777777777777-7777777777777777-------|
E|-----------------------------------5555555555555555------------------------|

e|----------------|
B|----------------|
G|----44-44-44----|
D|----44-44-44----|
A|----22-22-22----|
E|----------------|
Tap to rate this tab
# A B C D E F G H I J K L M N O P Q R S T U V W X Y Z