Song name
# A B C D E F G H I J K L M N O P Q R S T U V W X Y Z

Zebrahead - Burn The School Down tab

Amazing song. I took the solo from another tab so dont give me credit for that. But the 
took me awhile to figure out...
Tremolo on the intro/main riff.

Zebrahead Fucking Rocks!

Intro
e------------------------------------------|
B------------------------------------------|
G------------------------------------------|
D-4---44---4---44----4---44-----4--44------|
A---2----2---2----2------------------------|
E----------------------2----2/3---3--------|

e------------------------------------------|
B------------------------------------------|
G------------------------------------------|
D-4---44---4---44----4---44-----4--44------|
A---2----2---2----2------------------------|
E----------------------2----2/5---5--------|

Bridge (or whatever you'd like to call it)

e--------------------------------|
B--------------------------------|
G--------------------------------|
D-444-2457--44-2457--4-2457-2~---|
A-444-2457--44-2457--4-2457-2~---|
E-222-0235--22-0235--2-0235-0~---|

Intro / Main Riff
e------------------------------------------|
B------------------------------------------|
G------------------------------------------|
D-4---44---4---44----4---44-----4--44------|
A---2----2---2----2------------------------|
E----------------------2----2/3---3--------|

e------------------------------------------|
B------------------------------------------|
G------------------------------------------|
D-4---44---4---44----4---44-----4--44------|
A---2----2---2----2------------------------|
E----------------------2----2/5---5--------|

Chorus

e------------------------------------------|
B------------------------------------------|
G---44444444-77777777----------------------|
D---44444444-77777777-55555555-44444444----|
A---22222222-55555555-55555555-44444444----|
E---------------------33333333-22222222----|


Solo
  T        T        T
------------------------------|
------------------------------|
---11p3h4p3-11p3h4p3-11p3h4---|
------------------------------| x4
------------------------------|
------------------------------|


   T       T       T     T       T       T
-------------------------------------------------|
-------------------------------------------------|
-------------------------------------------------|
---7p3h4p3-7p3h4p3-7p3h4-7p3h4p3-7p3h4p3-7p3h4---|
-------------------------------------------------|
-------------------------------------------------|


   T       T       T     T       T       T
-------------------------------------------------|
-------------------------------------------------|
-------------------------------------------------|
---6p3h4p3-6p3h4p3-6p3h4-6p3h4p3-6p3h4p3-6p3h4---|
-------------------------------------------------|
-------------------------------------------------|
Tap to rate this tab
# A B C D E F G H I J K L M N O P Q R S T U V W X Y Z