Song name
# A B C D E F G H I J K L M N O P Q R S T U V W X Y Z

Zebrahead - Mental Health tab

-------------------------------------------------------------------------------
			Mental Health - Zebrahead
-------------------------------------------------------------------------------
Tabbed by: Sean a.k.a. CrashAshes43
Email: xGib50nKing@yahoo.com

Great song by Zebrahead, very catchy and fun to play.
This might be one of the most comprehensive tabs you've ever seen, but it's 
organized in a way that's easy to see.
Part - Guitar(s) [Effect] (Start - End)
Got it? Good.

Song: Mental Health
Artist: Zebrahead
Album: Phoenix
Genre: Pop Punk
Released: June, 2008

If you're confused as to where a guitar comes in, check the start time of the riff.

Guitar 1 - Greg Bergdorf
Guitar 2 - Matty Lewis

Intro - Guitar 1 [Distortion] (00:00 - 00:19)
e|----18----16----14---------------------14----------14-|
B|-14----14----14----14-18b19r18---14-18----18-14-18----|
G|------------------------------------------------------|
D|------------------------------------------------------|
A|------------------------------------------------------|
E|------------------------------------------------------|
                                                             x3
e|----18----16----14----19----18-16-14-16-18-16-14-|
B|-14----14----14----14----14----------------------|
G|-------------------------------------------------|
D|-------------------------------------------------|
A|-------------------------------------------------|
E|-------------------------------------------------|

Intro - Guitar 2 [Distortion] (00:06 - 00:19)
e|-x-x-x-x-|
B|-x-x-x-x-|
G|-x-x-x-x-|
D|-x-x-x-x-|
A|-x-x-x-x-|
E|-x-x-x-x-|

e|---------------------------------|
B|---------------------------------|
G|-----------------4-4-4-4-4-4-4-4-|  x4
D|-4-4-x-x-6-6-x-x-4-4-4-4-4-4-4-4-|
A|-4-4-x-x-6-6-x-x-2-2-2-2-2-2-2-2-|
E|-2-2-x-x-4-4-x-x-----------------|

Verse 1 - Guitar 2 [Distortion] (00:19 - 00:32)
e|------------|
B|------------|
G|------------|
D|-4----------|
A|-4-(hold)---|
E|-2----------|
"The lights are on...permanent vacation"

Verse 1 Riff - Guitar 1 + 2 [Distortion] (00:32 - 00:45)
e|-----------------------------------------|
B|-----------------------------------------|
G|-----------------------------------------|
D|-------------8-x8-6-x8-4-x32-------------|
A|-4-x32-6-x16-6----4----2-----4-x16-3-x16-|
E|-2-----4---------------------2-----1-----|
   |______________Palm_Mute______________|
"I break down...I go psycho (psycho), psycho (psycho)"

Pre-Chorus - Guitar 1 + 2 [Distortion] (00:45 - 00:54)
e|-----------------------------------------------------------------|
B|-----------------------------------------------------------------|
G|-8-8-8-8-8-8-8-8-7-7-7-7-7-7-7-7-----------------4-4-4-4-4-4-4-4-|
D|-8-8-8-8-8-8-8-8-7-7-7-7-7-7-7-7-4-4-4-4-6-6-6-6-4-4-4-4-4-4-4-4-|
A|-6-6-6-6-6-6-6-6-5-5-5-5-5-5-5-5-4-4-4-4-6-6-6-6-2-2-2-2-2-2-2-2-|
E|---------------------------------2-2-2-2-4-4-4-4-----------------|
"And all I want is to go home, just for a bit (hey hey hey)"

e|---------------------------------|
B|---------------------------------|
G|-8-8-8-8-8-8-8-8-7-7-7-7-x-x-x-x-|
D|-8-8-8-8-8-8-8-8-7-7-7-7-x-x-x-x-|
A|-6-6-6-6-6-6-6-6-5-5-5-5-x-x-x-x-|
E|---------------------------------|
"But these padded rooms are the shit"

Chorus - Guitar 1 + 2 [Distortion] (00:54 - 01:07)
e|---------------------------------|
B|---------------------------------|
G|-----------------4-4-4-4-4-4-4-4-|  x3
D|-4-4-x-x-6-6-x-x-4-4-4-4-4-4-4-4-|
A|-4-4-x-x-6-6-x-x-2-2-2-2-2-2-2-2-|
E|-2-2-x-x-4-4-x-x-----------------|
"I'm happy in...time will tell"


e|---------------------------------|
B|---------------------------------|
G|-----------------444444444444444-|
D|-4444444466666666----------------|
A|-----------------222222222222222-|
E|-2222222244444444----------------|
"Whatever, I'm happy in my mental health"

Interlude - Guitar 1 [Distortion] (01:07 - 01:13)
e|----18----16----14---------------------14----------14-|
B|-14----14----14----14-18b19r18---14-18----18-14-18----|
G|------------------------------------------------------|
D|------------------------------------------------------|
A|------------------------------------------------------|
E|------------------------------------------------------|

e|----18----16----14----19----18-16-14-16-18-16-14-|
B|-14----14----14----14----14----------------------|
G|-------------------------------------------------|
D|-------------------------------------------------|
A|-------------------------------------------------|
E|-------------------------------------------------|

Interlude - Guitar 2 [Distortion] (01:07 - 01:13)
e|-------------------------------|
B|-------------------------------|
G|-----------------4-4-4-4-4-4-4-|  x2
D|-4-4-x-x-6-6-x-x-4-4-4-4-4-4-4-|
A|-4-4-x-x-6-6-x-x-2-2-2-2-2-2-2-|
E|-2-2-x-x-4-4-x-x---------------|

Verse 2 - Guitar 2 [Distortion] (01:13 - 01:26)
e|------------|
B|------------|
G|------------|
D|-4----------|
A|-4-(hold)---|
E|-2----------|
"Hey meet a friend...and bite on this"

Verse 2 Riff - Guitar 1 + 2 [Distortion] (01:26 - 01:39)
e|----------------------------------------------------------------|
B|----------------------------------------------------------------|
G|-----------------------8--------6--------4----------------------|
D|-----4--------6----8-8-8-x2-6-6-6-x2-4-4-4-x8-----4--------3----|
A|-4-4-4-x8-6-6-6-x4-6-6-6----4-4-4----2-2-2----4-4-4-x4-3-3-3-x4-|
E|-2-2-2----4-4-4-------------------------------2-2-2----1-1-1----|
   |_|      |_|      |_|      |_|      |_|      |_|      |_|
"Electric shocks...I go psycho (psycho), psycho (psycho)"

Pre-Chorus - Guitar 1 + 2 [Distortion] (01:39 - 01:48)
e|-----------------------------------------------------------------|
B|-----------------------------------------------------------------|
G|-8-8-8-8-8-8-8-8-7-7-7-7-7-7-7-7-----------------4-4-4-4-4-4-4-4-|
D|-8-8-8-8-8-8-8-8-7-7-7-7-7-7-7-7-4-4-4-4-6-6-6-6-4-4-4-4-4-4-4-4-|
A|-6-6-6-6-6-6-6-6-5-5-5-5-5-5-5-5-4-4-4-4-6-6-6-6-2-2-2-2-2-2-2-2-|
E|---------------------------------2-2-2-2-4-4-4-4-----------------|
"And all I want is to go home, just for a bit (hey hey hey)"

e|---------------------------------|
B|---------------------------------|
G|-8-8-8-8-8-8-8-8-7-7-7-7-x-x-x-x-|
D|-8-8-8-8-8-8-8-8-7-7-7-7-x-x-x-x-|
A|-6-6-6-6-6-6-6-6-5-5-5-5-x-x-x-x-|
E|---------------------------------|
"But these padded rooms are the shit"

Chorus - Guitar 1 + 2 [Distorted] (01:48 - 02:03)
e|---------------------------------|
B|---------------------------------|
G|-----------------4-4-4-4-4-4-4-4-|  x3
D|-4-4-x-x-6-6-x-x-4-4-4-4-4-4-4-4-|
A|-4-4-x-x-6-6-x-x-2-2-2-2-2-2-2-2-|
E|-2-2-x-x-4-4-x-x-----------------|
"I'm happy in...time will tell"

e|---------------------------------|
B|---------------------------------|
G|-----------------444444444444444-|
D|-4444444466666666----------------|
A|-----------------222222222222222-|
E|-2222222244444444----------------|
"Whatever, I'm happy in my mental health"

e|-----|
B|-----|
G|-----|
D|-4-4-|
A|-4-4-|
E|-2-2-|

Solo - Guitar 1 [Clean] (02:03 - 02:15)
e|------------------------------------------------------|
B|-14p13p11---------------------------------------------|
G|---------13p11p10-------------------------------------|
D|-----------------13p12p10--------------------11/12-11-|
A|-------------------------14p13p11---11-13-14----------|
E|------------------------------------------------------|

e|----------------------------------------|
B|----------------------------------------|
G|----------------------------------------|
D|-/13-13---\11-11---\9--9---8--9---9-/11-|
A|-/14-14---\13-13---\11-11--9--11--11/13-|
E|----------------------------------------|

e|------------------------------------------------------|
B|-14p13p11---------------------------------------------|
G|---------13p11p10-------------------------------------|
D|-----------------13p12p10--------------------11/12-11-|
A|-------------------------14p13p11---11-13-14----------|
E|------------------------------------------------------|

e|-/14-14---\13-13---\11-11---\9--9----6--7--9---\6-|
B|-/16-16---\14-14---\13-13---\11-11---7--9--11--\7-|
G|--------------------------------------------------|
D|--------------------------------------------------|
A|--------------------------------------------------|
E|--------------------------------------------------|

Bridge - Guitar 2 [Clean] (02:15 - 02:29)
e|-----------------------2---------|
B|---------------------------2-----|
G|-----3-------6-------4-------4---|  x3
D|-----4-------6-----4-------------|
A|-----4-------6---2---------------|
E|-2-------4-----------------------|
"Straight jacket...all my panic"

*switch distortion on*
e|----------------------------------|
B|----------------------------------|
G|----------------------------------|
D|-4-4---4-4---4-4---4-4---xxxxxxxx-|
A|-4-4---4-4---4-4---4-4---xxxxxxxx-|
E|-2-2---2-2---2-2---2-2---xxxxxxxx-|
"Welcome, this is my life, a padded room up in the attic"

Bridge - Guitar 1 [Distortion] (02:28 - 02:29)
e|-----|
B|-----|
G|-----|
D|-x\\-|
A|-x\\-|
E|-x\\-|

Pre-Chorus - Guitar 1 + 2 [Distortion] (02:29 - 02:38)
e|-----------------------------------------------------------------|
B|-----------------------------------------------------------------|
G|-8-8-8-8-8-8-8-8-7-7-7-7-7-7-7-7-----------------4-4-4-4-4-4-4-4-|
D|-8-8-8-8-8-8-8-8-7-7-7-7-7-7-7-7-4-4-4-4-6-6-6-6-4-4-4-4-4-4-4-4-|
A|-6-6-6-6-6-6-6-6-5-5-5-5-5-5-5-5-4-4-4-4-6-6-6-6-2-2-2-2-2-2-2-2-|
E|---------------------------------2-2-2-2-4-4-4-4-----------------|
"And all I want is to go home, just for a bit (hey hey hey)"

e|---------------------------------|
B|---------------------------------|
G|-8-8-8-8-8-8-8-8-7-7-7-7-x-x-x-x-|
D|-8-8-8-8-8-8-8-8-7-7-7-7-x-x-x-x-|
A|-6-6-6-6-6-6-6-6-5-5-5-5-x-x-x-x-|
E|---------------------------------|
"But these padded rooms are the shit"

Chorus - Guitar 1 + 2 [Distortion] (02:38 - 02:51)
e|---------------------------------|
B|---------------------------------|
G|-----------------4-4-4-4-4-4-4-4-|  x3
D|-4-4-x-x-6-6-x-x-4-4-4-4-4-4-4-4-|
A|-4-4-x-x-6-6-x-x-2-2-2-2-2-2-2-2-|
E|-2-2-x-x-4-4-x-x-----------------|
"I'm happy in...time will tell"

e|---------------------------------|
B|---------------------------------|
G|-----------------4-4-4-4-4-4-4-4-|
D|-4-4-4-4-6-6-6-6-4-4-4-4-4-4-4-4-|
A|-4-4-4-4-6-6-6-6-2-2-2-2-2-2-2-2-|
E|-2-2-2-2-4-4-4-4-----------------|
"Whatever, I'm happy in my mental health"

Outro - Guitar 1 [Distortion] (02:51 - 3:13)
e|----18----16----14---------------------14----------14-|
B|-14----14----14----14-18b19r18---14-18----18-14-18----|
G|------------------------------------------------------|
D|------------------------------------------------------|
A|------------------------------------------------------|
E|------------------------------------------------------|
                                                             x2
e|----18----16----14----19----18-16-14-16-18-16-14-|
B|-14----14----14----14----14----------------------|
G|-------------------------------------------------|
D|-------------------------------------------------|
A|-------------------------------------------------|
E|-------------------------------------------------|

Outro - Guitar 2 [Distortion] (02:51 - 3:13)
e|---------------------------------|
B|---------------------------------|
G|-----------------4-4-4-4-4-4-4-4-|  x4
D|-4-4-x-x-6-6-x-x-4-4-4-4-4-4-4-4-|
A|-4-4-x-x-6-6-x-x-2-2-2-2-2-2-2-2-|
E|-2-2-x-x-4-4-x-x-----------------|
"I'm happy in my mental health"

e|------------|
B|------------|
G|------------|
D|-4----------|
A|-4-(hold)---|
E|-2----------|

| /     slide up
| \     slide down
| h     hammer-on
| p     pull-off
| ~     vibrato
| +     harmonic
| x     mute note
| x\\   pick slide
| |_|   palm mute
| 1b2   bend from first note to second note
| 1b2r1 bend from first note to second note and release back to first
===============================================================================
Tap to rate this tab
 
# A B C D E F G H I J K L M N O P Q R S T U V W X Y Z