Song name
# A B C D E F G H I J K L M N O P Q R S T U V W X Y Z

Zebrahead - Playmate Of The Year tab

Zebrahead~Playmate Of The Year (Guitare)

Intro :

e|---4-4-7-7-5-5-------4-4-7-7-5-5--------|
B|----5-5-5-5-5-5-7-4-5-5-5-5-5-5-5-7-4-5-|
G|----------------------------------------|
D|----------------------------------------|
A|----------------------------------------|
E|----------------------------------------|

Couplet :

e|---4-4-7-7-5-5-------4-4-7-7-5-5-------------|
B|----5-5-5-5-5-5-7-4-5-5-5-5-5-5-5-7-4-5------|
G|---------------------------------------------|     x2
D|---------------------------------------------|
A|---------------------------------------------|
E|---------------------------------------------|

Refrain :

e|---------------------------------------|
B|---------------------------------------|
G|---99999999----------------------------|
D|---99999999-99999999-77777777-99999999-|
A|---77777777-99999999-77777777-99999999-|
E|------------77777777-55555555-77777777-|

e|---------------------------------------|
B|---------------------------------------|
G|---99999999----------------------------|
D|---99999999-99999999-77777777-99999999-|
A|---77777777-99999999-77777777-99999999-|
E|------------77777777-55555555-77777777-|

e|---------------------------------------|
B|---------------------------------------|
G|---------------------------------------|
D|---77777777-9--------------------------|
A|---77777777-9--------------------------|
E|---55555555-7--------------------------|

Solo :

e|---------------------------------------|
B|---------------------------------------|
G|---------------------------------------|      x2
D|---------------------------------------|
A|---11--9-7-9-6-6-9-6-7-4-7-4-6-4-2-----|
E|---------------------------------------|
Tap to rate this tab
 
# A B C D E F G H I J K L M N O P Q R S T U V W X Y Z