Zebrahead - Walking Dead tab

			          THE WALKING DEAD - Zebrahead

Tabbed by: Daniel Love (Vash_15)
Email: vash_i5@yahoo.com

Tuning: Standard

INTRO

e|--------------------------------------------11----------------------------|
B|-11---11-12-11---11-14-11----11-12-11----11-------------------------------|
G|---------------------------------------------------x2---8~----------------|
D|----13---------13---------13----------13----------------8~----------------|
A|--------------------------------------------------------6~----------------|
E|--------------------------------------------------------------------------|


VERSE (During Matty's vocals)

e|--------------------------------------------------------------------------|
B|--------------------------------------------------------------------------|
G|-xx11-xx11-xx11-99/10-----------------------------------------------------|
D|-xxx--xxx--xxx--xx/x------------------------------------------------------|
A|-xx9--xx9--xx9--77/8------------------------------------------------------|
E|--------------------------------------------------------------------------|


CHORUS

e|--------------------------------------------------------------------------|
B|--------------------------------------------------------------------------|
G|---88888888---------------------------------------------------------------|
D|---88888888-88888888-99999999-44444444------------------------------------|
A|---66666666-88888888-99999999-44444444------------------------------------|
E|------------66666666-77777777-22222222------------------------------------|


SOLO

Haha, soooo beyond my abilities. 
Just play the chorus during this part like Matty does.


BRIDGE
e|--------------------------------------------------------------------------|
B|--------------------------------------------------------------------------|
G|--------------------------------------------------------------------------|
D|--8-8-888-----------------------------------------------------------------|
A|--8-8-888-x4--------------------------------------------------------------|
E|--6-6-666-----------------------------------------------------------------|


************************************
| /   slide up
| \   slide down
| h   hammer-on
| p   pull-off
| ~   vibrato
| +   harmonic
| x   Mute note
| b   Bend
| pb  Pre-bend
| br  Bend release
| pbr Pre-bend release
| brb Bend release bend

************************************
Tap to rate this tab
 
# A B C D E F G H I J K L M N O P Q R S T U V W X Y Z