Song name
# A B C D E F G H I J K L M N O P Q R S T U V W X Y Z

Zebrahead - Brixton tab

-------------------------------------------------------------------------------
			     BRIXTON - Zebrahead
-------------------------------------------------------------------------------
Tabbed by: Daniel Love (Vash_15
Email: vash_i5@yahoo.com

Tuning: Standard

I didn't see a tab for this song so I decided to give it a whirl, since it's one of my 
ZH songs.

This is just Matty's guitar, since I have no chance of figuring out Greg's riffs

INTRO

e|--------------------------------------------------------------------------|
B|--------------------------------------------------------------------------|
G|-10--------------10-------------------------------------------------------|
D|--x--8-9-10-9-8---x--8-9-10-9---------------------------------------------|
A|--8--x-x--x-x-x---8--x-x--x-x--(x2)---------------------------------------|
E|-----6-7--8-7-6------6-7--8-7---------------------------------------------|


VERSE

e|--------------------------------------------------------------------------|
B|--------------------------------------------------------------------------|
G|-----------6--4-4--6--4-4--3-3--------------------------------------------|
D|-3-3--3-3--6--4-4--6--4-4--3-3--(x4)---3~---------------------------------|
A|-3-3--3-3--4--2-2--4--2-2--1-1---------3~---------------------------------|
E|-1-1--1-1------------------------------1~---------------------------------|


CHORUS

e|--------------------------------------------------------------------------|
B|--------------------------------------------------------------------------|
G|--8-------10--------------------------------------------------------------|
D|--8-(x16)-10-------6-------8----------------------------------------------|
A|--6--------8-(x16)-6-(x16)-8-(x16)----------------------------------------|
E|-------------------4-------6----------------------------------------------|


BRIDGE

Not sure about the rhythm, but basically just keep playing this chord and letting it ring
e|--------------------------------------------------------------------------|
B|--------------------------------------------------------------------------|
G|-10~----------------------------------------------------------------------|
D|-10~----------------------------------------------------------------------|
A|--8~----------------------------------------------------------------------|
E|--------------------------------------------------------------------------|

Here's the order you would play it in

INTRO
VERSE
CHORUS
INTRO
VERSE
CHORUS
play CHORUS over the solo
BRIDGE
CHORUS
INTRO
Tap to rate this tab
 
# A B C D E F G H I J K L M N O P Q R S T U V W X Y Z