Song name
# A B C D E F G H I J K L M N O P Q R S T U V W X Y Z

Zebrahead - Playmate Of The Year tab

-------------------------------------------------------------------------------
			Playmate of the Year - Zebrahead
-------------------------------------------------------------------------------


Feel free to make any suggestions, but i think this is pretty much correct.


Tuning: Standard

Intro:

  Guitar I

e|--------------------------------------|
B|--------------------------------------|
G|------22--44444444------22--44444444--|
D|--22--22--44444444--22--22--44444444--|
A|--22--00--22222222--22--00--22222222--|
E|--00----------------00----------------|

  Guitar II

e|--4-0-4-0-7-0-7-0-5-0-5-0-2-0-2-0-4-0-4-0-7-0-7-0-5-0-5-0-2-0-2-0--|
B|-------------------------------------------------------------------|
G|-------------------------------------------------------------------|
D|-------------------------------------------------------------------|
A|-------------------------------------------------------------------|
E|-------------------------------------------------------------------|


Verse: Just Bass


Pre-Chorus:

  Guitar I

e|--------------------------------------|
B|--------------------------------------|
G|------22--44444444------22--44444444--|
D|--22--22--44444444--22--22--44444444--|  x2
A|--22--00--22222222--22--00--22222222--|
E|--00----------------00----------------|

  Guitar II

e|--4-0-4-0-7-0-7-0-5-0-5-0-2-0-2-0-4-0-4-0-7-0-7-0-5-0-5-0-2-0-2-0--|
B|-------------------------------------------------------------------|
G|-------------------------------------------------------------------|
D|-------------------------------------------------------------------| x2
A|-------------------------------------------------------------------|
E|-------------------------------------------------------------------|


Chorus: 

  Both Guitars

e|------------------------------------------------------------------------|
B|------------------------------------------------------------------------|
G|--99999999--------------------------------99999999----------------------|
D|--99999999--99999999--77777777--99999999--99999999--99999999--77777777--|
A|--77777777--99999999--77777777--99999999--77777777--99999999--77777777--|
E|------------77777777--55555555--77777777------------77777777--55555555--|

e|-------------------------|
B|-------------------------|
G|-------------------------|
D|--99999999--77777777--9--|
A|--99999999--77777777--9--|
E|--77777777--55555555--7--|


Pre-verse:

  Guitar I

e|--------------------------------------|
B|--------------------------------------|
G|------22--44444444------22--44444444--|
D|--22--22--44444444--22--22--44444444--|
A|--22--00--22222222--22--00--22222222--|
E|--00----------------00----------------|

  Guitar II

e|--4-0-4-0-7-0-7-0-5-0-5-0-2-0-2-0-4-0-4-0-7-0-7-0-5-0-5-0-2-0-2-0--|
B|-------------------------------------------------------------------|
G|-------------------------------------------------------------------|
D|-------------------------------------------------------------------|
A|-------------------------------------------------------------------|
E|-------------------------------------------------------------------|


Verse:

  Guitar I

e|------------------------------|
B|------------------------------|
G|------------------------------|
D|------------------------------|
A|--/7---/9\6--6\4/6h7---6\4\2--|
E|------------------------------|


Pre-Chorus:

  Guitar I

e|--------------------------------------|
B|--------------------------------------|
G|------22--44444444------22--44444444--|
D|--22--22--44444444--22--22--44444444--|  x2
A|--22--00--22222222--22--00--22222222--|
E|--00----------------00----------------|

  Guitar II

e|--4-0-4-0-7-0-7-0-5-0-5-0-2-0-2-0-4-0-4-0-7-0-7-0-5-0-5-0-2-0-2-0--|
B|-------------------------------------------------------------------|
G|-------------------------------------------------------------------|
D|-------------------------------------------------------------------| x2
A|-------------------------------------------------------------------|
E|-------------------------------------------------------------------|


Chorus: 

  Both Guitars

e|------------------------------------------------------------------------|
B|------------------------------------------------------------------------|
G|--99999999--------------------------------99999999----------------------|
D|--99999999--99999999--77777777--99999999--99999999--99999999--77777777--|
A|--77777777--99999999--77777777--99999999--77777777--99999999--77777777--|
E|------------77777777--55555555--77777777------------77777777--55555555--|

e|-------------------------|
B|-------------------------|
G|-------------------------|
D|--99999999--77777777--9--|
A|--99999999--77777777--9--|
E|--77777777--55555555--7--|


Solo:

  Guitar I

e|-------------------------------------------|
B|--/9-9-9--7-5-7-4--4-7-4-5-2--2-5-2-4-2-0--|
G|-------------------------------------------| x2
D|-------------------------------------------|
A|-------------------------------------------|
E|-------------------------------------------|

  Guitar II
 
e|------------------------------------------------------------------------------------|
B|-------------------------------------------/9-9-9--7-5-7-4--4-7-4-5-2--2-5-2-4-2-0--|
G|--99999999--------------------------------------------------------------------------|
D|--99999999--99999999--777777777--99999999-------------------------------------------|
A|--77777777--99999999--777777777--99999999-------------------------------------------|
E|------------77777777--555555555--77777777-------------------------------------------|


Pre-chorus:

  Guitar I

e|--------------------------------------|
B|--------------------------------------|
G|------22--44444444------22--44444444--|
D|--22--22--44444444--22--22--44444444--|
A|--22--00--22222222--22--00--22222222--|
E|--00----------------00----------------|

  Guitar II

e|--4-0-4-0-7-0-7-0-5-0-5-0-2-0-2-0-4-0-4-0-7-0-7-0-5-0-5-0-2-0-2-0--|
B|-------------------------------------------------------------------|
G|-------------------------------------------------------------------|
D|-------------------------------------------------------------------|
A|-------------------------------------------------------------------|
E|-------------------------------------------------------------------|


Final Chorus: 

  Both Guitars

e|--------------------------------------------------------------|
B|--------------------------------------------------------------|
G|--99999999--------------------------------99999999------------|
D|--99999999--99999999--77777777--99999999--99999999--99999999--|
A|--77777777--99999999--77777777--99999999--77777777--99999999--|
E|------------77777777--55555555--77777777------------77777777--|

e|------------------------------------------|
B|------------------------------------------|
G|--99999999--------------------------------|
D|--99999999--99999999--77777777--99999999--|
A|--77777777--99999999--77777777--99999999--|
E|------------77777777--55555555--77777777--|


Outro:

  Guitar I

e|--------------------------------------|
B|--------------------------------------|
G|------22--44444444------22--44444444--|
D|--22--22--44444444--22--22--44444444--|
A|--22--00--22222222--22--00--22222222--|
E|--00----------------00----------------|

  Guitar II

e|--4-0-4-0-7-0-7-0-5-0-5-0-2-0-2-0-4-0-4-0-7-0-7-0-5-0-5-0-2-0-2-0--|
B|-------------------------------------------------------------------|
G|-------------------------------------------------------------------|
D|-------------------------------------------------------------------|
A|-------------------------------------------------------------------|
E|-------------------------------------------------------------------|



| /  slide up
| \  slide down
| h  hammer-on
| p  pull-off


===============================================================================
Tap to rate this tab
 
# A B C D E F G H I J K L M N O P Q R S T U V W X Y Z