Song name
# A B C D E F G H I J K L M N O P Q R S T U V W X Y Z

Zebrahead - Im Money tab

Artist: Zebrahead
Song: I'm Money
Album: Playmate of the Year
E-Mail: beefynerd@www.com
Tabbed by Jeremy Burgess

This song is one of my favorites by Zebrahead, so here it is:

Verses:

E|-----------------------------------------
B|-12---12---12---12---12---12---14---14---
G|-11---11---11---11---11---11---13---13---
D|-9----9----9----9----9----9----11---11---
A|-----------------------------------------
E|-----------------------------------------

Chorus (1st and 3rd times):

E|------------------
B|------------------
G|----11--9---9---
D|-9--11--9---9---
A|-9---9---7---7---
E|-7-----------------

The 2nd and 4th times just add this to the end:

E|------------
B|-12--------
G|-11--11---
D|-9---11---
A|------9----
E|------------

"Who needs them anyway.":

E|-----------
B|-----------
G|-11--9---
D|-11--9---
A|-9---7---
E|-----------

Solo (only the 1st half):

E|---------------------------------------12h14-12-----------------------
B|-15-15-15-15-15-15-14h15---15-15-15-14----------14-12---15-15-15-15---
G|----------------------------------------------------------------------
D|----------------------------------------------------------------------
A|----------------------------------------------------------------------
E|----------------------------------------------------------------------

E|-------------17h19-17---------------------------------------
B|-15-15-14h15----------17-19-17-17-15-17-15-17-19-17-15------
G|-------------------------------------------------------16---
D|------------------------------------------------------------
A|------------------------------------------------------------
E|------------------------------------------------------------

"Everybody look at me.":

E|----------------------------------
B|----------------------------------
G|---------9---9-----------11--11---
D|-9---9---9---9---9---9---11--11---
A|-9---9---7---7---9---9---9----9---
E|-7---7-----------7---7------------

Remember, that is only half of the solo, because I couldnt figure out the second half, but beside that, thats the song.  Any help with that would be greatly appreciated.  If you have any questions or you know the solo, e-mail me.
Tap to rate this tab
# A B C D E F G H I J K L M N O P Q R S T U V W X Y Z