Zebrahead - Jag Off tab

-------------------------------------------------------------------------------
			     Jag Off (live) - Zebrahead
-------------------------------------------------------------------------------
Tabbed by: rocky2476 (jeremy v)
Email: rocky2476@aim.com

Tuning: Standard

This is the riff tht gets used throughout the song:
    C#           E         E        C#        E         E
e|--9--9--x-x-x--12-12-12--12-12-12-9--9--x-x-x-12-12-12--12-12-12--|
B|--x--x--x-x-x--12-12-12--12-12-12-x--x--x-x-x-12-12-12--12-12-12--|
G|--x--x--x-x-x---------------------x--x--x-x-x---------------------|
D|--11-11-x-x-x---------------------11-11-x-x-x---------------------|
A|--11-11---------------------------11-11---------------------------|
E|--9--9----------------------------9--9----------------------------|

and these are the chords for the chorus:
    F#              E             E/F
e|-----------------------------------|
B|-----------------------------------|
G|-----------------------------------|
D|--4-4-4-4-4-4-4-4-2-2-2-2-2-2-2-2--|
A|--4-4-4-4-4-4-4-4-2-2-2-2-2-2-2-2--|
E|--2-2-2-2-2-2-2-2-0-0-0-0-0-0-0-1--|


************************************

| /   slide up
| \   slide down
| h   hammer-on
| p   pull-off
| ~   vibrato
| +   harmonic
| x   Mute note
| b   Bend
| pb  Pre-bend
| br  Bend release
| pbr Pre-bend release
| brb Bend release bend

************************************
Tap to rate this tab
 
# A B C D E F G H I J K L M N O P Q R S T U V W X Y Z