Song name
# A B C D E F G H I J K L M N O P Q R S T U V W X Y Z

Zebrahead - Ricky Bobby tab

-----------------------------------------------------------------------------
			     RICKY BOBBY - Zebrahead
-----------------------------------------------------------------------------
Tabbed by: Daniel Love (Vash_15)
Email: vash_i5@yahoo.com

Tuning: Drop D (DADGBe)

Intro riff pt 1 (gtr 1)

e|--------------------------------------------------------------------------|
B|--------------------------------------------------------------------------|
G|-4-4-4-4-4-4-4-4\3-3-3-4-4-4-4-(x3)-4-4-4-4-4-4-4-4\3---------------------|
D|--------------------------------------------------------------------------|
A|--------------------------------------------------------------------------|
D|--------------------------------------------------------------------------|

Intro riff pt 2 (gtr 2)

e|-7-7-7-7-7-7-7-7\6-6-6-7-7-7-7-7-7-7-7-7-7-7-7\6--------------------------|
B|--------------------------------------------------------------------------|
G|--------------------------------------------------------------------------|
D|--------------------------------------------------------------------------|
A|--------------------------------------------------------------------------|
D|--------------------------------------------------------------------------|


Intro pt 2 (gtr 1)

e|---------------------------------------14---------------------15----------|
B|-12-11h12p11h12-15-(11)-12-11h12p11h12----(11)-12-11h12p11h12----(11)-----|
G|--------------------------------------------------------------------------|
D|--------------------------------------------------------------------------|
A|--------------------------------------------------------------------------|
D|--------------------------------------------------------------------------|

e|-14-14-12-12--------------------------------------------------------------|
B|-------------15-15-14-12--------------------------------------------------|
G|--------------------------------------------------------------------------|
D|--------------------------------------------------------------------------|
A|--------------------------------------------------------------------------|
D|--------------------------------------------------------------------------|


intro pt 2 (gtr 2)

e|--------------------------------------------------------------------------|
B|--------------------------------------------------------------------------|
G|-4~----7~-4~----7~-4~----7~-99999999--------------------------------------|
D|-4~-4~-7~-4~-4~-7~-4~-4~-7~-99999999--------------------------------------|
A|-2~-4~-5~-2~-4~-5~-2~-4~-5~-77777777--------------------------------------|
D|----4~-------4~-------4~--------------------------------------------------|

verse (gtr 1)


e|--------------------------------------------------------------------------|
B|--------------------------------------------------------------------------|
G|-4------------------------------------------------------------------------|
D|-4------------------------------------------------------------------------|
A|-2------------------------------------------------------------------------|
D|--------------------------------------------------------------------------|

e|--------------------------------------------------------------------------|
B|--------------------------------------------------------------------------|
G|-4~--------4~-------------------------------------------------------------|
D|-4~-4~-0~--4~-4~-0~-------------------------------------------------------|
A|-2~-4~-0~--2~-4~-0~-------------------------------------------------------|
D|----4~-0~-----4~-0~-------------------------------------------------------|
  "Life is just a drag when the whole world's falling apart"

verse (gtr 2) play staccato over B chord half way through the verse

e|-------12-14-17-19--------------------------------------------------------|
B|-12-15--------------------------------------------------------------------|
G|--------------------------------------------------------------------------|
D|--------------------------------------------------------------------------|
A|--------------------------------------------------------------------------|
D|--------------------------------------------------------------------------|


pre chorus (gtr 1)

e|--------------------------------------------------------------------------|
B|--------------------------------------------------------------------------|
G|-7/9-9--7/9-9---7/9-9--7/9-9----------------------------------------------|
D|-7/9-9--7/9-9---7/9-9--7/9-9----------------------------------------------|
A|-5/7-7--5/7-7---5/7-7--5/7-7----------------------------------------------|
D|--------------------------------------------------------------------------|


pre chorus (gtr 2)

e|-xxxxxxxxxxxxxxxxxxxxxxxxxxxxxxxx-----------------------------------------|
B|-xxxxxxxxxxxxxxxxxxxxxxxxxxxxxxxx-----------------------------------------|
G|-xxxxxxxxxxxxxxxxxxxxxxxxxxxxxxxx-----------------------------------------|
D|-xxxxxxxxxxxxxxxxxxxxxxxxxxxxxxxx-----------------------------------------|
A|-xxxxxxxxxxxxxxxxxxxxxxxxxxxxxxxx-----------------------------------------|
D|-xxxxxxxxxxxxxxxxxxxxxxxxxxxxxxxx-----------------------------------------|


chorus


e|--------------------------------------------------------------------------|
B|--------------------------------------------------------------------------|
G|----------99999999--------------------------------------------------------|
D|-99999999-99999999-77777777-44444444--------------------------------------|
A|-99999999-77777777-77777777-44444444--(x2)--------------------------------|
D|-99999999----------77777777-44444444--------------------------------------|


Pre solo 
e|--------------------------------------------------------------------------|
B|--------------------------------------------------------------------------|
G|-4-4-4-4-4-4-4444---------------------------------------------------------|
D|-4-4-4-4-4-4-4444-(x2)----------------------------------------------------|
A|-2-2-2-2-2-2-2222---------------------------------------------------------|
D|--------------------------------------------------------------------------|

(can't figure out the solo, but gtr 2 just plays the chorus over it)


************************************

| /   slide up
| \   slide down
| h   hammer-on
| p   pull-off
| ~   vibrato
| +   harmonic
| x   Mute note
| b   Bend
| pb  Pre-bend
| br  Bend release
| pbr Pre-bend release
| brb Bend release bend

************************************
Tap to rate this tab
 
# A B C D E F G H I J K L M N O P Q R S T U V W X Y Z