Song name
# A B C D E F G H I J K L M N O P Q R S T U V W X Y Z

Zebrahead - Light Up The Sky tab

-------------------------------------------------------------------------------
			 LIGHT UP THE SKY - Zebrahead
-------------------------------------------------------------------------------
Tabbed by: Daniel Love (Vash_15)
Email: vash_i5@yahoo.com

Tuning: Standard (EADGBe)

INTRO

(gtr 1) those are 11's and 10's not 0'1 and 1's 
e|--------------------------------------------------------------------------|
B|-88888888-1111111111111111-88888888-66666666------------------------------|
G|-88888888-1010101010101010-88888888-55555555------------------------------|
D|------------------------------------------(x3 for intro, x2 for preverse)| 
A|--------------------------------------------------------------------------|
E|--------------------------------------------------------------------------|

(gtr 2) comes in after 1 rep of gtr 1's riff
e|--------------------------------------------------------------------------|
B|--------------------------------------------------------------------------|
G|---------------------------88888888---------------------------------------|
D|-1010101010101010-66666666-88888888-88888888--(x2)------------------------|
A|-1010101010101010-66666666-66666666-88888888------------------------------|
E|--8-8-8-8-8-8-8-8-44444444----------66666666------------------------------|

VERSE
e|--------------------------------------------------------------------------|
B|--------------------------------------------------------------------------|
G|-------------------------8888888888888888---------------------------------|
D|-10-10-10-10-10-10-10-10-xxxxxxxxxxxxxxxx-8888888888888888----------------|
A|-10-10-10-10-10-10-10-10-6666666666666666-xxxxxxxxxxxxxxxx----------------|
E|--8--8--8--8--8--8--8--8------------------6666666666666666----------------|

e|--------------------------------------------------------------------------|
B|--------------------------------------------------------------------------|
G|-----------------8888888888888888-----------------------------------------|
D|-6-6-6-6-6-6-6-6-xxxxxxxxxxxxxxxx-8888888888888888------------------------|
A|-6-6-6-6-6-6-6-6-6666666666666666-xxxxxxxxxxxxxxxx---(x2)-----------------|
E|-4-4-4-4-4-4-4-4------------------6666666666666666------------------------|

PRE CHORUS
e|--------------------------------------------------------------------------|
B|--------------------------------------------------------------------------|
G|----------------------------------88888888--------------------------------|
D|-10101010101010101010101010101010-xxxxxxxx-88888888-6666666666666666------|
A|--x-x-x-x-x-x-x-x-x-x-x-x-x-x-x-x-66666666-xxxxxxxx-xxxxxxxxxxxxxxxx------|
E|--8-8-8-8-8-8-8-8-8-8-8-8-8-8-8-8----------66666666-4444444444444444------|

e|--------------------------------------------------------------------------|
B|--------------------------------------------------------------------------|
G|-88888888-------------------------------------------88888888--------------|
D|-xxxxxxxx-88888888-10101010101010101010101010101010-xxxxxxxx-88888888-----|
A|-66666666-xxxxxxxx--x-x-x-x-x-x-x-x-x-x-x-x-x-x-x-x-66666666-xxxxxxxx-----|
E|----------66666666--8-8-8-8-8-8-8-8-8-8-8-8-8-8-8-8----------66666666-----|

e|--------------------------------------------------------------------------|
B|--------------------------------------------------------------------------|
G|--------------------------------------------------------------------------|
D|-6666666666666666-8\\\\\\\\\\\\\\\\\\\\-----------------------------------|
A|-xxxxxxxxxxxxxxxx-8\\\\\\\\\\\\\\\\\\\\-----------------------------------|
E|-4444444444444444-6\\\\\\\\\\\\\\\\\\\\-----------------------------------|

CHORUS
e|--------------------------------------------------------------------------|
B|--------------------------------------------------------------------------|
G|---------------------------88888888---------------------------------------|
D|-1010101010101010-66666666-88888888-88888888------------------------------|
A|-1010101010101010-66666666-66666666-88888888--------(x2)------------------|
E|--8-8-8-8-8-8-8-8-44444444----------66666666------------------------------|

"So here is my last shot to light up the sky..."
e|--------------------------------------------------------------------------|
B|--------------------------------------------------------------------------|
G|------------------------------------88888888------------------------------|
D|-66666666-88888888-1010101010101010-88888888-66666666-88888888------------|
A|-66666666-88888888-1010101010101010-66666666-66666666-88888888------------|
E|-44444444-66666666--8-8-8-8-8-8-8-8----------44444444-66666666------------|

SOLO
e|--------------------------------------------------------------------------|
B|--------------------------------------------------------------------------|
G|-5-7-8-7b-5-----5--------------/5-7-8-7b-5-----5--------------------------|
D|------------5-8---5-----5------------------5-8---5-----5-8-5--------------|
A|--------------------6-8---8-6----------------------6-8-------6\-----------|
E|--------------------------------------------------------------------------|

BRIDGE (Ali)
e|--------------------------------------------------------------------------|
B|--------------------------------------------------------------------------|
G|------------------------------88xx----------------------------------------|
D|-66xxxxxx-88xxxxxx-1010xxxxxx-88xx-88xx-----------------------------------|
A|-66xxxxxx-88xxxxxx-1010xxxxxx-66xx-88xx-----------------------------------|
E|-44xxxxxx-66xxxxxx--8-8xxxxxx------66xx-----------------------------------|

BRIDGE (Matty)
e|--------------------------------------------------------------------------|
B|--------------------------------------------------------------------------|
G|---------------------88-888---------------------------88-888--------------|
D|--1010-101010-66-666-88-888-88-888-1010-101010-66-666-88-888-8~-----------|
A|--1010-101010-66-666-66-666-88-888-1010-101010-66-666-66-666-8~-----------|
E|--8-8--8-8--8-44-444--------66-666--8-8--8-8-8-44-444--------6~-----------|



************************************

| /   slide up
| \   slide down
| h   hammer-on
| p   pull-off
| ~   vibrato
| +   harmonic
| x   Mute note
| b   Bend
| pb  Pre-bend
| br  Bend release
| pbr Pre-bend release
| brb Bend release bend

************************************
Tap to rate this tab
# A B C D E F G H I J K L M N O P Q R S T U V W X Y Z