Song name
# A B C D E F G H I J K L M N O P Q R S T U V W X Y Z

Zebrahead - Get Nice Acoustic chords

Highlighted       Show chord diagrams
Zebrahead - Get nice acoustic

I did this by ear from youtube so it may also be a bit off with the solo. But basically
it fits so who cares if it's exactly right :P It's a simple little song that sounds
really cool on acoustic. For conveniance' sake to make it even more simple you can play 
it either half step tunned down and play tha chords half a step up or put a capo on the first
fret and play them half step down.

Tuning: EADGBe (standard)

5x
e|---------------------------------------------------------|
B|--------16----16-----------16----16----15----16----------|
G|----15-----15----15-----15----15----15----15----15-------|
D|-13------------------13----------------------------------|
A|---------------------------------------------------------|
E|---------------------------------------------------------|

e|-------------------------------------------|
B|-18----16----15----16----15-15-15-15-15----|
G|----15----15----15----15-15-15-15-15-15----|
D|-------------------------------------------|
A|-------------------------------------------|
E|-------------------------------------------|


  Eb            Bb        Ab     Bb
A cheap thrill, new pill, take a ride
       Eb          Bb         Ab        Bb
Itís a fresh kill, keep still along the side
         Eb           Bb        Ab       Bb
Itís all uphill, that shit will make you cry
       Ab
If you fly on by, if you do Iíll die

           Eb      Bb                      Ab       Bb
And we can hit the ground running until we start to bleed and
Eb          Bb           Ab   Bb
Stay up all night, never fall asleep
       Eb          Bb       Ab       Bb
If the world caves in, just count to 3, go
Ab
1,2,3 go!

Eb   Fm Ab Bb
Whoa oh-oh oh-oh
Eb   Fm Ab Bb
Whoa oh-oh oh-oh

         Eb
Somebody stop this world from spinniní
        Bb
Because weíre never giviní in
            Cm
And I canít stop from believing
        Ab
We will rise again (hey, hey, hey)
         Eb
Somebody stop this world from spinniní
        Bb
Because weíre never giviní in
            Cm
And I canít stop from believing
        Ab
We will all rise up again

3x
e|---------------------------------------------------------|
B|--------16----16-----------16----16----15----16----------|
G|----15-----15----15-----15----15----15----15----15-------|
D|-13------------------13----------------------------------|
A|---------------------------------------------------------|
E|---------------------------------------------------------|

e|-------------------------------------------|
B|-18----16----15----16----15-15-15-15-15----|
G|----15----15----15----15-15-15-15-15-15----|
D|-------------------------------------------|
A|-------------------------------------------|
E|-------------------------------------------|

  Eb        Bb         Ab    Bb
a new wave, nice save, start fight
       Eb           Bb            Ab     Bb
Itís a close shave, misbehave and go all night
          Eb          Bb     Ab       Bb
Youíre an enclave, so brave, wound so tight
       Ab
If you try, I'll try, if you do I'll die

           Eb        Bb                     Ab     Bb
And we can leave the ground running till we cannot see and
Eb        Bb           Ab    Bb
Party all night, never fall asleep
       Eb         Bb      Ab       Bb
If the walls cave in just count to 3, go
Ab
1, 2, 3, go!

Eb   Fm Ab Bb
Whoa oh-oh oh-oh
Eb   Fm Ab Bb
Whoa oh-oh oh-oh

         Eb
Somebody stop this world from spinniní
        Bb
Because weíre never giviní in
            Cm
And I canít stop from believing
        Ab
We will rise again (hey, hey, hey)
         Eb
Somebody stop this world from spinniní
        Bb
Because weíre never giviní in
            Cm
And I canít stop from believing
        Ab
We will all rise up again

Solo (see bellow)

            Eb
If you lose heart then you gotta put yourself up
      Bb
Brand new start when everything tensed up
      A
Can't break apart when you really get a sense that
Bb
You are not alone (alone)

Eb
Cuz I can hold on, If you throw your hands up
   Bb
It wont be long, If you throw your hands up
A
We can prove them wrong, If you throw your hands up
Bb
Throw your hands up! Throw your hands up!

         Eb
Somebody stop this world from spinniní
        Bb
Because weíre never giviní in
            Cm
And I canít stop from believing
        Ab
We will rise again (hey, hey, hey)
         Eb
Somebody stop this world from spinniní
        Bb
Because weíre never giviní in
            Cm
And I canít stop from believing
        Ab
We will all rise up again

         Eb
Somebody stop this world from spinniní
        Bb
Because weíre never giviní in
            Cm
And I canít stop from believing
        Ab
We will rise again (hey, hey, hey)
         Eb
Somebody stop this world from spinniní
        Bb
Because weíre never giviní in
            Cm
And I canít stop from believing
        Ab
We will all rise up again

3x
   ...we will all rise up againÖ
e|---------------------------------------------------------|
B|--------16----16-----------16----16----15----16----------|
G|----15-----15----15-----15----15----15----15----15-------|
D|-13------------------13----------------------------------|
A|---------------------------------------------------------|
E|---------------------------------------------------------|

e|-------------------------------------------|
B|-18----16----15----16----15-15-15-15-15----|
G|----15----15----15----15-15-15-15-15-15----|
D|-------------------------------------------|
A|-------------------------------------------|
E|-------------------------------------------|

End on Eb


The solo:

e|---------------------------------------------------------------------------|
B|--11--8---13--11---8--11--6--8--4--3--4---6-6-6-6-6-6-6--4-4-4-4-4-4-4-----|
G|---------------------------------------------------------------------------|
D|---------------------------------------------------------------------------|
A|---------------------------------------------------------------------------|
E|---------------------------------------------------------------------------|

e|------------------------------8--------------------------------------------|
B|--6-6-6-6-6-6-6--8b---11-8-11---11--8--11--6--8--6--4-3-4--8--11--8--6--8--|
G|---------------------------------------------------------------------------|
D|---------------------------------------------------------------------------|
A|---------------------------------------------------------------------------|
E|---------------------------------------------------------------------------|

e|---------------------------------------------------------------------------|
B|--4--6--6--4--3b---1-1-1-1-1-1-1--3-3-3-3-3-3-3--4-4-4-4-4-4-4--6b--6-8-6--|
G|--------------------------------------------------------------------------7|
D|---------------------------------------------------------------------------|
A|---------------------------------------------------------------------------|
E|---------------------------------------------------------------------------|

e|---------------------------------------------------------------------------|
B|-6-8-6----------5--6-------------------------------------------------------|
G|-------7--5--7-------------------------------------------------------------|
D|---------------------------------------------------------------------------|
A|---------------------------------------------------------------------------|
E|---------------------------------------------------------------------------|
Tap to rate this tab
# A B C D E F G H I J K L M N O P Q R S T U V W X Y Z