Song name
# A B C D E F G H I J K L M N O P Q R S T U V W X Y Z

Zebrahead - The Jokes On You tab

-------------------------------------------------------------------------------
                             The Joke's on you - Zebrahead
-------------------------------------------------------------------------------
Tabbed by: PeterPun

Tuning: Half-Step Down

eb|-------------------------------------------------------------|
Bb|-15----14----12----10----------------------------------------|
Gb|----11----11----11----11-7-9-11-7---11b12b11-9-7-9b11b9-7-6--|
Db|----------------------------------9--------------------------|
Ab|-------------------------------------------------------------|
Eb|-------------------------------------------------------------|

eb|------------------------------------------------------------------------|
Bb|-15----14----12----10---------------------------------------------------|
Gb|----11----11----11----11-7-9-11-7----12b14b12-11-9--11b12b11-9----------|
Db|----------------------------------9----------------------------12-11-9~-|
Ab|------------------------------------------------------------------------|
Eb|------------------------------------------------------------------------|
Tap to rate this tab
# A B C D E F G H I J K L M N O P Q R S T U V W X Y Z