Song name
# A B C D E F G H I J K L M N O P Q R S T U V W X Y Z

Zebrahead - With Friends Like These Who Needs Herpes tab

Zebrahead- Call your friends- With friends like these, who need herpes?

Half step down. Not 100% about the chorus lead but I think the rest is correct, comments 
for improvement will be fully appreciated!


Bass notes to the piano part at the start, cool to distort on guitar ;)

eb---------------------------------------------------------|
Bb---------------------------------------------------------|
Gb---------------------------------------------------------|
Db---4-----3--6---4-------3-6------------------------------|
Ab-----5-4-----------5--4----------------------------------|
Eb---------------------------------------------------------|

Guitar 1

eb--------------------------------------19-|
Bb---10---7---6---9----10--14--18--21------|
Gb-----------------------------------------|
Db-----------------------------------------|
Ab-----------------------------------------|
Eb-----------------------------------------|

Guitar 2

eb-----------------------------------------|
Bb-----------------------------------------|
Gb-----6-----6--10-------------------------|
Db--4--6--4--6--10-------------------------|
Ab--4--4--4--4--8--------------------------|
Eb--2-----2--------------------------------|

Guitar 1

eb----------------------------------------------------|
Bb-10-10-14-12-10-10-14-12----12-12-15-14-12-12-15-14-|
Gb----------------------------------------------------|
Db----------------------------------------------------|
Ab----------------------------------------------------|
Eb----------------------------------------------------|

Guitar 2

eb-----------------------------------------|
Bb-----------------------------------------|
Gb-----7--4--6-----------------------------|
Db--4--7--4--6-----------------------------|
Ab--4--5--2--4-----------------------------|
Eb--2--------------------------------------|

Guitar 2

eb---------------------------------------------------|
Bb---------------------------------------------------|
Gb---------------------------------------------------|
Db----------------------------------7--6--4----------|
Ab------2-4--------4-5------2-4-----5--4--2--2-------|
Eb--2-2--------2-2------2-2------------------0-------|

Guitar 2

eb-----------------------------------------------------------------|
Bb-----------------------------------------------------------------|
Gb-----------------------------------------------------------------|
Db----------------------------------------------------77-66-44-----|
Ab------2h4p2-----------2h4p2------------2h4p2--------55-44-22-22--|
Eb--2-2-------5-4-0 2-2-------5-4-0--2-2-------5-4-0-----------00--|

Guitar 1

eb---------------------------------------------------------------------|
Bb---------------------------------------------------------------------|
Gb-1111-111111-111111-111111-99-999-999-999-88-888-888-888-77-777-7-6--|
Db-x-x--x-x-x--x-x-x--x-x-x--xx-xxx-xxx-xxx-xx-xxx-xxx-xxx-xx-xxx-x-x--|
Ab-9-9--9-9-9--9-9-9--9-9-9--77-777-777-777-66-666-666-666-55-555-5-4--|
Eb---------------------------------------------------------------------|

Guitar 1 Chorus

eb--17p16-------17p16-------17p16-------14h16p14h16--|
Bb--------19p14-------19p14-------19p14--------------|
Gb---------------------------------------------------|
Db---------------------------------------------------|
Ab---------------------------------------------------|
Eb---------------------------------------------------|

eb-16p14-------16p14-------16p14-------13h14p13h14---|
Bb-------18p14-------18p16-------18p16---------------|
Gb---------------------------------------------------|
Db---------------------------------------------------|
Ab---------------------------------------------------|
Eb---------------------------------------------------|

eb--17p16-------17p16-------17p16-------14h16p14h16--|
Bb--------19p14-------19p14-------19p14--------------|
Gb---------------------------------------------------|
Db---------------------------------------------------|
Ab---------------------------------------------------|
Eb---------------------------------------------------|

eb--17p16-------17p16-------16p14-------16p14--------|
Bb--------19p14-------19p14-------18p16-------18p16--|
Gb---------------------------------------------------|
Db---------------------------------------------------|
Ab---------------------------------------------------|
Eb---------------------------------------------------|

Guitar 2 Chorus

eb-----------------------------------------|
Bb-----------------------------------------|
Gb-----6--7--------------------------------|
Db--4--6--7--7-6---------------------------|
Ab--4--4--5--7-6---------------------------|
Eb--2--------5-4---------------------------|

Guitar 1 Solo

eb---------------------------------------------------------|
Bb---7-9-10--6-10-9---14-15-14----14-----------------------|
Gb-----------------------------16----16-14-16-14-13-14-13--|
Db---------------------------------------------------------|
Ab---------------------------------------------------------|
Eb---------------------------------------------------------|


eb-------------------------------4h5h4-----4h5p4-------------------|
Bb---11-13-14-16-14-13-10--6-----------6---------6/12--12-10-9-----|
Gb---------------------------------------6----------------------10-|
Db-----------------------------------------------------------------|
Ab-----------------------------------------------------------------|
Eb-----------------------------------------------------------------|

     *  *  *  *  Tremolo the note with stars above!
eb----------------------------------------------------------|
Bb---15-14-12-10---17-18-19---------------------------------|
Gb----------------------------------------------------------|
Db----------------------------------------------------------|
Ab----------------------------------------------------------|
Eb----------------------------------------------------------|

Guitar 2

eb-------------------------------------------------------|
Bb-------------------------------------------------------|
Gb-------7---6---10--------------------------------------|
Db---4---7---6---10--------------------------------------|
Ab---4---5---4---8---------------------------------------|
Eb---2---------------------------------------------------|

Guitar 2

eb------------------------------------------------------|
Bb------------------------------------------------------|
Gb------------------------------------------------------|
Db---4-4------------------------------------------------|
Ab---4-4------------------------------------------------|
Eb---2-2------------------------------------------------|

Thankyou :3
Tap to rate this tab
# A B C D E F G H I J K L M N O P Q R S T U V W X Y Z