Song name
# A B C D E F G H I J K L M N O P Q R S T U V W X Y Z

Zebrahead - Murder On The Airwaves tab

NO SOLO
PRE-SOLO is wrong but close (i think)
!!!HALF STEP DOWN TUNING!!!

INTRO git1                                                      x4  last note
eb)----------12-------|-------12-----|---------12-----13-1312--12-| |----|
bb)------1315--1513---|---1315--1513-|-----1315--1513--------15---|o|----|
gb)-1414-----------14-|-14-----------|-1414-----------------------| |14~-|
db)-------------------|--------------|----------------------------| |----|
ab)-------------------|--------------|----------------------------|o|----|
eb)-------------------|--------------|----------------------------| |----|

verse 1
eb)--------------------------------------------------|
bb)--------------------------------------------------|
gb)--------------------------------------------------|
db)--------------------------------------------------|
ab)--------------------------------------------------|
eb)-55555588-1010101010101212-33333333-8b8b7b7b------|
    tremolo p.m.                       (vibrato/bend)

verse 2
eb)----------------------------------------------|
bb)----------------------------------------------|
gb)----------------------------------------------|
db)----------------------------------------------|
ab)-7777771010-1212121212121414-55555555-1010-99-|
eb)-5555558-8--1010101010101212-33333333-8-8--77-|

pre-chorus (rock the wah pedal)
eb)------------------------------------------------------|
bb)------------------------------------------------------|
gb)-141414141414/191919191919\121212121212/15151515\1010-
db)------------------------------------------------------
ab)-121212121212/171717171717\101010101010/15151515\1010- second time
eb)------------------------------------------------------ stop on ab)15

chorus
eb)--------------------------|    |-----------------------------|
bb)--------------------------|    |-----------------------------|
gb)-------------5-----7------| or |-------10--------------------|
db)-7-----3-----5(x16)7(x16)-|    |-7-----10(x16)10-----12------|
ab)-7(x16)3(z16)3-----5------|    |-7(x16)8------10(x16)12(x16)-|
eb)-5-----1------------------|    |-5------------8------10------|

bridge (tremolo picking)
eb)------------------------------------------|
bb)------------------------------------------|
gb)------------------------------------------|
db)------------------------------------------| then use these as power chords
ab)------------------------------------------| and lift the index finger
eb)-5500(x4)4400(x4)3300(x4)2200(x2)1100(x2)-| for 0

solo rhythm guitar

PLAY CHORUS

PLAY VERSE (effect is wah?) but second time down't do the bend/vibrato but
eb)---
bb)---
gb)---
db)-9-
ab)-9-
eb)-7-

thats pretty much it
my favorite song from this album
with solo i only can play few notes,
any correction please feel free to leave them.
Tap to rate this tab
 
# A B C D E F G H I J K L M N O P Q R S T U V W X Y Z