Song name
# A B C D E F G H I J K L M N O P Q R S T U V W X Y Z

Zebrahead - Last Call tab

NO SOLO
some parts need work (hoping for corrections from you)
HALF STEP DOWN TUNNING
Required |wah pedal|killswitch mod|

intro
eb)-12p0-12p0-12p0-12p0-12p0-10-|
bb)-----------------------------|
gb)-----------------------------|
db)-----------------------------|
ab)-----------------------------|
eb)-----------------------------|

intro part2 (wah pedal)
eb)-1212121212121212121212-
bb)------------------------|
gb)--9-9-9-9-9-9-9-9-9-9-9-|
db)------------------------|
ab)------------------------|
eb)------------------------|

verse1 killswitch
eb)-------------------|-----------------|
bb)-------------------|-----------------|
gb)-------------------|-----------------|
db)-(not exact rhythm)|-----------------|
ab)-7-77-7-777-77-777-|-5h7-5p0-3p0-2p0-|
eb)-------------------|-----------------|

verse2 wah
eb)---------------------------------------------------|
bb)---------------------------------------------------|
gb)-99999999-12121212121212-999999999-----------------|
db)---------------------------------------------------|
ab)-77777777-10101010101010-777777777-5h7-5p0-3p0-2p0-|
eb)---------------------------------------------------|

pre-chorus
   1,3                   2
eb)---------------------|---------------------|------------------|
bb)---------------------|---------------------|------------------|
gb)---------------------|---------------------|----------------2-|
db)-7777-5555-4444-5555-|-7777-5555-4444-2222-|-7777-5555-4444-2-|
ab)-5555-3333-2222-3333-|-5555-3333-2222-0000-|-5555-3333-2222-0-|
eb)---------------------|---------------------|------------------|

chorus                   var1          var2
eb)---------------------|-------------|--------|
bb)---------------------|-------------|--------|
gb)-9------------12-----|-12----10----|-9------|
db)-9(x16)10-----12(x16)|-12(x8)10(x8)|-9(x16)-|
ab)-7-----10(x16)10-----|-10-----8----|-7------|
eb)--------8------------|-------------|--------|

this thing
eb)----------------------------|
bb)----------------------------|
gb)----------------------------|
db)-9-999999-999999-999999-779-|
ab)-7-777777-777777-777777-557-|
eb)----------------------------|

solo rhythm
                             var1,2,3
eb)-------------------------|---------------------------|
bb)-------------------------|---------------------------|
gb)-99999999-12121212121212-|-999999999-----------------|
db)-99999999-12121212121212-|-999999999-----------------|
ab)-77777777-10101010101010-|-777777777-5h7-5p0-3p0-2p0-|
eb)-------------------------|---------------------------|

var4
eb)------------------------|
bb)------------------------|
gb)---------12121212121212-|
db)-9999999-12121212121212-|
ab)-7777777-10101010101010-|
eb)------------------------|
    p.m....

after solo riff
eb)------------|
bb)------------|
gb)------------|
db)------------|
ab)-7-7-7-7-75-|
eb)--0-0-0-0---|

end
intro part2 (wah pedal)
eb)-1212121212121212121212-
bb)------------------------|
gb)--9-9-9-9-9-9-9-9-9-9-9-|
db)------------------------|
ab)------------------------|
eb)------------------------|

eb)----------------------------|
bb)----------------------------|
gb)----------------------------|
db)-9-999999-999999-999999-779-|
ab)-7-777777-777777-777777-557-|
eb)----------------------------|

this is all i got,
got correction please feel free to leave them.
Tap to rate this tab
 
# A B C D E F G H I J K L M N O P Q R S T U V W X Y Z