Song name
# A B C D E F G H I J K L M N O P Q R S T U V W X Y Z

Zebrahead - Booty tab

Band:   Zebrahead
Song:   Bootylicious Vinyl
Album:  Waste of Mind

Chorus:
-2-2-2-2--7-7-7-7--2-2-2-2--5-5-5-5-7--------|
-2-2-2-2--7-7-7-7--2-2-2-2--5-5-5-5-7--------|
-3-3-3-3--8-8-8-8--3-3-3-3--6-6-6-6-8--------|
-4-4-4-4--9-9-9-9--4-4-4-4--7-7-7-7-9--------|
-4-4-4-4--9-9-9-9--4-4-4-4--7-7-7-7-9--------|
-2-2-2-2--7-7-7-7--2-2-2-2--5-5-5-5-7--------|

Verse:
-15-15-15-15-14--12-11-11/12-11-11/12-11/12--|
-14-14-14-14-14--12-11-11/12-11-11/12-11/12--|
---------------------------------------------|
---------------------------------------------|
---------------------------------------------|
---------------------------------------------|

Solo:
-15-17--14/15/14/12/11/12--15-17---12-12h14-12-12h14-14h15-------|
-15-17--14/15/14/12/11/12--15-17---12-12h14-12-12h14-14h15-------|
-----------------------------------------------------------------|
-----------------------------------------------------------------|
-----------------------------------------------------------------|
-----------------------------------------------------------------|


Tap to rate this tab
 
# A B C D E F G H I J K L M N O P Q R S T U V W X Y Z