Song name
# A B C D E F G H I J K L M N O P Q R S T U V W X Y Z

Zebrahead - Rated U For Ugly tab

Artist: Zebrahead
Album : Broadcast to the World
Track : Rated "U" for Ugly


Tabbed by: Brian Btuami





Intro
[Guitar1]                    Then
   e|-----------------|     |---------------------|
   B|-----------------| x5  |---------------------|
   G|-----------------|     |--77777777-99999999--|
   D|--4-44-44-44222--|     |--77777777-99999999--|
   A|--4-44-44-44222--|     |--55555555-77777777--| 
   E|--2-22-22-22000--|     |---------------------|

[Guitar2]
   e|-----------------|
   B|-----------------|
   G|---11*----11*----|
   D|-----------------|
   A|-----------------|
   E|---HARMONICS-----|

   e|---------------------------------------------------------------------------|
   B|---------------------------------------------------------------------------|
   G|----66----66-44-------------66----66-44-------------66----66-44------------|
   D|-44----44-------77-66----44----44-------77-66-77-44----44-------77-66------|
   A|----------------------77----------------------------------------------77---|
   E|---------------------------------------------------------------------------|

   e|---------------------------------------------------------------------------|
   B|---------------------------------------------------------------------------|
   G|----66-44-------66-44------------------------------------------------------|
   D|----------77-------------7b\-----------------------------------------------|
   A|-44----------77-------77---------------------------------------------------|
   E|---------------------------------------------------------------------------|

Verse
[Both Guitars]
   e|---------------------------------------------------------------------------|
   B|---------------------------------------------------------------------------| x4
   G|--------------4-6-6---6-11-11---11-9-9---9-7-7---7-------------------------|
   D|-9-9---9-9/----------------------------------------------------------------|
   A|---------------------------------------------------------------------------|
   E|---------------------------------------------------------------------------|

PreChorus (Same as Intro, followed by a pickslide)

Chorus
[Guitar1]
   e|--------------------------------------|
   B|--------------------------------------| x4
   G|----------77777777--------------------|
   D|-44444444-77777777-77777777-22222222--|
   A|-44444444-55555555-77777777-22222222--|
   E|-22222222----------55555555-00000000--|

[Guitar2]
   e|----------------|
   B|----------------| x32
   G|----------------|  (Some 4 note hammering,
   D|----------------|   but it isnt played live)
   A|----------------|
   E|----------------|

PostChorus

   Same as intro

Verse

PreChorus

Chorus

PreSolo
[Guitar1]
   (Same as Intro)

[Guitar2]
       ______________
      / Tremelo pick \
   e|--------------------------------------|
   B|--------------------------------------|
   G|------------------------\6b~----------|
   D|--------4~----------------------------|
   A|--------------------------------------|
   E|--------------------------------------|

Solo
[Guitar1]
   e|--------------------------------------|
   B|--------------------------------------| x4
   G|----------77777777--------------------|
   D|-44444444-77777777-77777777-22222222--|
   A|-44444444-55555555-77777777-22222222--|
   E|-22222222----------55555555-00000000--|

[Guitar2]
   e|---------------------------------------------------------------------------|
   B|---------------------------------------------------------------------------|
   G|---------6-----------6-----------9b-7-4-----4-6-7b-4-----------------------|
   D|-4-6-7-4---7-4-6-7-4---7-4-6-7-4--------6-7--------------------------------|
   A|---------------------------------------------------------------------------|
   E|---------------------------------------------------------------------------|

   e|---------------------------------------------------------------------------|
   B|---------------------------------------------------------------------------|
   G|---------6-----------6-----------9b-7-4---9b-7-4---------------------------|
   D|-4-6-7-4---7-4-6-7-4---7-4-6-7-4--------6--------6-------------------------|
   A|---------------------------------------------------------------------------|
   E|---------------------------------------------------------------------------|
      ____________________
     / Tremelo pick these \
   e|---------------------------------------------------------------------------|
   B|-8-10-11-8-10-11-13-11-13^(15)r13----------13^(15)r13----------------------|
   G|----------------------------------15-14-12------------15-14-12-------------|
   D|---------------------------------------------------------------------------|
   A|---------------------------------------------------------------------------|
   E|---------------------------------------------------------------------------|

   e|---------------------------------------------------------------------------|
   B|---------------------------------------------------------------------------|
   G|-12-14-12---14-12---14-12---17-15---18-17-15-12-13\------------------------|
   D|-11-13-11---13-11---13-11---16-14---17-16-14-11-12\------------------------|
   A|---------------------------------------------------------------------------|
   E|---------------------------------------------------------------------------|

BreakDown
[Guitar1]
   e|---------------------------------------------------------------------------|
   B|---------------------------------------------------------------------------|
   G|---------------------------------------------------------------------------|
   D|-4--------22224--------22224--------22224--------4-/-7-\-------------------|
   A|-4--------22224--------22224--------22224--------4-/-7-\-------------------|
   E|-2--------00002--------00002--------00002--------2-/-5-\-------------------|

Chorus

Outro (Same as Intro)


Email at divine236@gmail.com to worship my existance/feel cool and talk trash via internet.
Tap to rate this tab
# A B C D E F G H I J K L M N O P Q R S T U V W X Y Z