Song name
# A B C D E F G H I J K L M N O P Q R S T U V W X Y Z

Zebrahead - Back To Normal tab

Band:    Zebrahead
Song:    Back to Normal
Album:   Broadcast to the World
Tuning:  Drop D

You can figure out the order it's easy enough

Intro: Guitar 2
|--------------------------------------------------------|
|--------------------------------------------------------|
|--------------------------------------6-6-8-8-----------|
|-6-6-x-6--6/10-10-x-10--10/3-3-x-3-3--6-6-8-8----x2-----|
|-6-6-x-6--6/10-10-x-10--10/3-3-x-3-3--4-4-6-6-----------|
|-6-6-x-6--6/10-10-x-10--10/3-3-x-3-3--------------------|

Intro part 2: Guitar 2
|---------------------------------------|
|---------------------------------------|
|-----5---8-5----------5---8-5---5------|
|-5-6---6-----6-5--------6-----6--------|
|--------------------6------------------|
|---------------------------------------| X3

then this
|---------------------------------------|
|---------------------------------------|
|-----5---8-5----------5---8-5----------|
|-5-6---6-----6-5--------6--------------|
|--------------------6------------------|
|---------------------------------------|


Intro - Guitar 1
|----------------------|
|----------------------|
|----------------------|
|-66666666-2222-1111---|
|-66666666-2222-1111---|
|-66666666-2222-1111---|

Verse
|---------------------------------------------------------------------------|
|---------------------------------------------------------------------------|
|----------------------------------------------------------------6-6-x-6-6--|
|-6-6--6-6-6-x-6-6--10-10-x-10-10-10-x-10-10--3-3-x-3-3-3-x-3-3--6-6-x-6-6--|
|-6-6--6-6-6-x-6-6--10-10-x-10-10-10-x-10-10--3-3-x-3-3-3-x-3-3--4-4-x-4-4--|
|-6-6--6-6-6-x-6-6--10-10-x-10-10-10-x-10-10--3-3-x-3-3-3-x-3-3-------------|

----------------|
----------------|
-6-x-6-6--------|
-6-x-6-6--------|
-4-x-4-4--------|
----------------|

Pre-Chorus
|------------xxxxxxxx-------|
|------------xxxxxxxx-------|
|------------xxxxxxxx-------|
|-6~-10~-3~--xxxxxxxx-------|
|-6~-10~-3~--xxxxxxxx-------|
|-6~-10~-3~--xxxxxxxx-------|


Chorus
|-------------------------------------------------------------------------|
|-------------------------------------------------------------------------|
|---------------------------------------------------66666666--------------|
|-66666666--101010101010101010--33333333--44444444--66666666--2222--1111--|
|-66666666--101010101010101010--33333333--44444444--44444444--2222--1111--|
|-66666666--101010101010101010--33333333--44444444------------2222--1111--|

Breakdown - no guitar

Solo: Guitar 2
|--------------------------------------------------------------------------|
|--------------------------------------------------------------------------|
|-6-6-66-5-5------6-6-66-5-5-------6-6-55-8-8-66-5------------5555-6666----|
|------------88\6------------88\6-------------------6666-8888--------------|
|--------------------------------------------------------------------------|
|--------------------------------------------------------------------------|

End on

|----|
|----|
|----|
|-6~-|
|-6~-|
|-6~-|

Any corrections send to callum_thomson666@hotmail.com
Tap to rate this tab
 
# A B C D E F G H I J K L M N O P Q R S T U V W X Y Z