Song name
# A B C D E F G H I J K L M N O P Q R S T U V W X Y Z

Zebrahead - Postcards From Hell tab

Tabbed by: Callum Thomson
Email:Callum_Thomson666@hotmail.com

Tuning: half-step down (Eb Ab Db Gb Bb eb)

Intro    
Guitar 1                                                   [ twelves ]
eb|---------------------------------------------------------12121212|
Bb|-0h5h10-0h5h9-0h5h10-0h5h9-0h5h10-0h5h9-0h5h10-0h5h9-0h5---------|
Gb|-----------------------------------------------------------------|
Db|-----------------------------------------------------------------|
Ab|-----------------------------------------------------------------|
Eb|-----------------------------------------------------------------|

Guitar 2   (strumming not shown)
eb|-------------------------------------------------------------|
Bb|-------------------------------------------------------------|
Gb|---------6---------------6---7-----------6-------2-------4---|
Db|-2-------6---6---2-------6---7---2-------6---6---2-------4---|
Ab|-2-------4---6---2-------4---5---2-------4---6---0-------2---|
Eb|-0-----------4---0---------------0-----------4---------------|

Verse
Guitar 1   (strumming not shown)
eb|-------------------------------------------------------------|
Bb|-------------------------------------------------------------|
Gb|---------6---------------6---7-----------6-------2-------4---|
Db|-2-------6---6---2-------6---7---2-------6---6---2-------4---|
Ab|-2-------4---6---2-------4---5---2-------4---6---0-------2---|
Eb|-0-----------4---0---------------0-----------4---------------|

Guitar 2 joins in second time round

Chorus 
Both Guitars
eb|------------------------------------|
Bb|------------------------------------|
Gb|-9---------------6------------------|
Db|-9-------6-------6-------7----------|
Ab|-7-------6-------4-------7----------|
Eb|---------4---------------5----------|


Solo
eb|--------------------------------------------------------------------|
Bb|-12---12-12br--9---9-9br----------9-10------9-10-12---12-14-12-16b--|
Gb|-------------------------9---9-11--------11-------------------------|
Db|--------------------------------------------------------------------|
Ab|--------------------------------------------------------------------|
Eb|--------------------------------------------------------------------|

eb|-----------------------------------------------16~~~~---|
Bb|-16br-16-14-12------------------------12-14-16----------|
Gb|---------------13------11-13-11-13-14-------------------|
Db|--------------------14----------------------------------|
Ab|--------------------------------------------------------|
Eb|--------------------------------------------------------|

Guitar 2
eb|------------------------------|                     |----|
Bb|------------------------------|                     |----|
Gb|-6----------------------4-----|             end on  |--9-|
Db|-6------7-------2-------4-----|                     |--9-|
Ab|-4------7-------2-------2-----|   X2                |--7-|
Eb|--------5-------0-------------|                     |----|


You can easily figure out the order for yourself because I'm too lazy to write it down see ya.

b  - bend
br - bend, release
~  - let ring

Tap to rate this tab
# A B C D E F G H I J K L M N O P Q R S T U V W X Y Z