Song name
# A B C D E F G H I J K L M N O P Q R S T U V W X Y Z

Zebrahead - Type A tab

Artist: Zebrahead
Track: Type a
Tabbed by Luke H (Pennywise_90)
luke1945@hotmail.com



Intro/Chorus

e|-----------------------------------|x4
B|-----------------------------------|
G|-----------------------------------|
D|--5-5-5--4-4-4-4-4-4---------------|
A|--5-5-5--4-4-4-4-4-4---------------|
E|--3-3-3--2-2-2-2-2-2---------------|

After Chorus

e|-----------------------------------|
B|-----------------------------------|
G|-----------------------------------|
D|--5-5-5--4-------------------------|
A|--5-5-5--4-------------------------|
E|--3-3-3--2-------------------------|

(0.21)

e|-----------------------------------|x4
B|-----------------------------------|
G|-----------------------------------|
D|--5-5-5--4---xxxxxxxxxx------------|
A|--5-5-5--4---xxxxxxxxxx------------|
E|--3-3-3--2---xxxxxxxxxx------------|
              (Harmonics)
 

e|-----------------------------------|
B|-----------------------------------|
G|--7--------------------------------|
D|--7--------------------------------|
A|--5-5-5-5-5-5----------------------|
E|-----------------------------------|
      . . . . . (Palm Mute)


(1.18)

e|-----------------------------------|
B|-----------------------------------|
G|-----------------------------------|
D|---------4-------------------------|
A|---------4-------------------------|
E|--3-3-3--2-------------------------|


Its Pretty Easy to figure out what order it goes in,
just listen to the song :) Enjoy! Ratings Appreciated.
Tap to rate this tab
 
# A B C D E F G H I J K L M N O P Q R S T U V W X Y Z